Elemeno P

Elemeno P
Fast Times In Tahoe Ver 4 (Guitar tab)

This is a easy cool song to play. If anyone knows there other song about their 'seven favourite records' can they please post it

Intro and verse

---------------------------------------------------
---------------------------------------------------
--4--4-x-x-4--4-4-4/6--6-x-x-1--1-1-1\2--2-x-x-4--4
--4--4-x-x-6--6-6-6/8--8-x-x-3--3-3-3\4--4-x-x-6--6
--6--6-x-x-6--6-6-6/8--8-x-x-3--3-3-3\4--4-x-x-6--6
--6--6-x-x-5--5-5-5/7--7-x-x-2--2-2-2\3--3-x-x-5--5

play over and over until fat distortion when u play it without the highest string,(just play powercords)


Solo

------------------8-----------------------------8---8--10-11----13-11-10-11-8----8-10-11-
------8-9-8---------11-8-11-8--8-9-8-9-10-11--11--11---------11---------------11---------
-8--8------10-8--8-----------------------------------------------------------------------
-----------------------------------------------------------------------------------------
-----------------------------------------------------------------------------------------

OptimusPrime

Submitted by OptimusPrime at Thu 14 Aug, 2003 4:43 pm

Author: ?
Composer: ?
Publisher: ?
Language: English

Reactions

CommonCrawl [Bot]

Follow Muzikum