Elemeno P

Elemeno P
Fast Times In Tahoe Ver 2 (Guitar tab)

Author/Artist: Elemeno P
Title: Fast Times In Tahoe
Album: Unreleased
Transcribed by: Alec Wren
Email: awren88@hotmail.com

This is a good kiwi song, i just saw them in concert last
night so im pretty sure this is 101% correct,
please comment if you disagree, enjoy

e|----------------------------------------------------------------------------
b|----------------------------------------------------------------------------
g|-6-666-6--------------------------------------------------------------------
d|-6-666-6-6-6-66-6/8-88-8--3-3-33-3/4-44-4--6-6-6----------------------------
a|-4-444-4-6-6-66-6/8-88-8--3-3-33-3/4-44-4--6-6-6----------------------------
E|---------4-4-44-4/6-66-6--1-1-11-1/2-22-2--4-4-4----------------------------
Intro/verse (clean) x8

e|----------------------------------------------------------------------------
b|----------------------------------------------------------------------------
g|-6666-----------------------------------------------------------------------
d|-6666-6666-8888-3333-4444-6666----------------------------------------------
a|-4444-6666-8888-3333-4444-6666----------------------------------------------
E|------4444-6666-1111-2222-4444----------------------------------------------
Chorus (distortion) x3

e|----------------------------------------------------------------------------
b|----------------------------------------------------------------------------
g|----------------------------------------------------------------------------
d|-88888888x66666666x44444444x33333333x44444444x66666666----------------------
a|-88888888x66666666x44444444x33333333x44444444x66666666----------------------
E|-66666666-44444444x22222222x11111111x22222222x44444444----------------------
Riff (Distortion with palm mute) x1

e|----------------------------------------------------------------------------
b|----------------------------------------------------------------------------
g|-6666-----------------------------------------------------------------------
d|-6666-6666-8888-3333-4444-6666----------------------------------------------
a|-4444-6666-8888-3333-4444-6666----------------------------------------------
E|------4444-6666-1111-2222-4444----------------------------------------------
Chorus(distortion) x3

e|----------------------------------------------------------------------------
b|----------------------------------------------------------------------------
g|--6-6-6-6-86--6-6-6-6-86--6-6-6-6-86----------------------------------------
d|----------------------------------------------------------------------------
a|----------------------------------------------------------------------------
E|----------------------------------------------------------------------------

Played under 1st run of chorus above
e|-----------------6-----------------------6---6-8-9---11-9-8-9-9---6-8-9-----
b|-----6-7-6---------9-7-9-6-6-7-6-7-6-9-9---9-------9------------9-----------
g|-6-6-------8-6-6------------------------------------------------------------
d|----------------------------------------------------------------------------
a|----------------------------------------------------------------------------
E|----------------------------------------------------------------------------
solo x1

e|-------------------------------|--------------------------------------------
b|-------------------------------|--------------------------------------------
g|-------------------------------|-6666---------------------------------------
d|------6666-8888-3333-4444-6666-|-6666-6666-8888-3333-4444-6666--------------
a|------6666-8888-3333-4444-6666-|-4444-6666-8888-3333-4444-6666--------------
E|------4444-6666-1111-2222-4444-|------4444-6666-1111-2222-4444--------------
Chorus (distortion) x5

e|----------------------------------------------------------------------------
b|----------------------------------------------------------------------------
g|--11b--9b-8b-6b-6-10-11-----------------------------------------------------
d|----------------------------------------------------------------------------
a|----------------------------------------------------------------------------
E|----------------------------------------------------------------------------
2nd guitar in last 2 chorus's

OptimusPrime

Submitted by OptimusPrime at Thu 14 Aug, 2003 4:43 pm

Author: ?
Composer: ?
Publisher: ?
Language: English

Reactions

CommonCrawl [Bot]

Follow Muzikum