Elemeno P

Elemeno P
Fast Times In Tahoe (Guitar tab)

this is a wicked nz band with wicked song, this is the only tab on the net 4 this song
enjoy

standard tuning

intro/verse

--4-4--4-4-4-4-4-4-4-/-6-6--1-1-1-1-1-1-1-/-2-2-2-2-4-4
--5-5--4-4-4-4-4-4-4-/-6-6--1-1-1-1-1-1-1-/-2-2-2-2-4-4
--5-5--5-5-5-5-5-5-5-/-7-7--2-2-2-2-2-2-2-/-3-3-3-3-5-5
--5-5--6-6-6-6-6-6-6-/-8-8--3-3-3-3-3-3-3-/-4-4-4-4-6-6
--4-4--6-6-6-6-6-6-6-/-8-8--3-3-3-3-3-3-3-/-4-4-4-4-6-6
--4-4--4-4-4-4-4-4-4-/-6-6--1-1-1-1-1-1-1-/-2-2-2-2-4-4

chorus

just the same as the intro/verse but without the slides and in fat distortion

solo

-------------------8---------------------------------8---8-10-11---8-10-11
-----8-9-8-----------11-8-11-8-8-8h9-8-9-10-11-11-11---11--------11-------
-8-8--------10-8-8--------------------------------------------------------
--------------------------------------------------------------------------
--------------------------------------------------------------------------
--------------------------------------------------------------------------

OptimusPrime

Submitted by OptimusPrime at Sun 01 Dec, 2002 9:43 am

Author: ?
Composer: ?
Publisher: ?
Language: English

Reactions

CommonCrawl [Bot]

Follow Muzikum