Ena Pá 2000

Ena Pá 2000
Fim De Semana Em Vizela Ver 2 (Guitar tab)

Ena P� 2000
"Fim de semana em Vizela"


Chords:
Am(5th): 577655
Dm(5th): x57765
Em(7th): x79987


Intro
Verse 1
2x Verse 2
Solo
Verse 1
2x Verse 2



Intro

Am Gm } 4x

RIFF 1
2x
D|----------------------------------------|
A|------3333--5-6-7---------1111--3-4-5---|
E|--5555----------------3333--------------|


Verse 1

Fim de semana em Vizela
Am(5th)
Levav'o meu c�o pela trela
Gm G#m Am(5th)
No feriado municipal
Cm C#m Dm(5th) Cm Dm(5th)
Adoptei um filho anormal
Am(5th)
Segunda-feira em Porto de M�s
Dm(5th) D#m Em(7th) Dm(5th)
Dei um tiro nos meus av�s
Am(5th)


Verse 2

Quarta-feira em Ponte de Barca
Am(5th)
Fiz um piquenique na mata

Sexta-feira em Castro Marim
Dm(5th)
Toda a gente fugiu de mim
Am(th)
Domigo � tarde na orgia
Em(7th) Dm(5th)
Estava a seguinte companhia:
N.C.

Solo:

2x
E|---------------------------------------
B|---------------------------------------
G|--7h8h9-7h8h9-7h8h9-7h8h9-7h8h9-9-9\---
D|---------------------------------------

E|----------------------------------
B|--10--8-8-----8-8-10-10-8-8-------
G|----------9-9---------------9-9---
D|----------------------------------

E|---------------------------------------
B|---------------------------------------
G|--7h8h9-7h8h9-7h8h9-7h8h9-7h8h9-9-9\---
D|---------------------------------------

E|--------12-12----14-12------------10-10----12-10------
B|--12-15-------15-------15---10-13-------13-------13---
G|------------------------------------------------------
D|------------------------------------------------------

G|---------------------------------------
D|---------1-1h2-1-----------------------
A|---0---3----------3-2-2h3-2------------
E|-----------------------------5-4-4h5---




Tabbed by Daniel "Kumbaya" Nunes

OptimusPrime

Submitted by OptimusPrime at Sun 01 Dec, 2002 9:42 am

Author: ?
Composer: ?
Publisher: ?
Language: Portuguese

Reactions

CommonCrawl [Bot]

Follow Muzikum