Eskimo Toccata

Eskimo Toccata
Come On (Bass tab)

COME ON
BY ESKIMO TOCCATA (GLYNN)
TABBED BY BRYSON GORE

INTRO/VERSE
Dm E C D
|------------------------------------|
|-0---0---0---0---2---2-----------0--|
|---0---0---0---0---2---2---3---5----|
|-----------------------------3------|

PRE-CHORUS
|---------------------------------------------------|
|-2-2-2-0-----------------------------------0-------|
|---------2-2-2-0-----0-1---3-3-3-1---------------0-|
|-----------------3-3---------------3-3-3-1---------|

|---------------------------------------------------|
|-2-2-2-0-------------------------------------5-6-0-|
|---------2-2-2-0-----0-1---3-3-3-1---------5-------|
|-----------------3-3---------------3-3-3-1---------|

CHORUS
|----------------------------------------------------|
|-0-x-x-x-x----------------2-----------------------0-|
|-----------3---2---0----------2---------3-----------|
|----------------------------------0----------3------|

OptimusPrime

Submitted by OptimusPrime at Sun 01 Dec, 2002 9:39 am

Author: ?
Composer: ?
Publisher: ?
Language: English

Reactions

CommonCrawl [Bot]

Follow Muzikum