Eskimo Toccata

Eskimo Toccata
Sometimes Always Never Happens (Bass tab)

SOMETIMES ALWAYS NEVER HAPPENS
BY ESKIMO TOCCATA (GLYNNY)
TABBED BY BRYSON GORE

VERSE
|---------------------------------|
|---------------------------------|
|-3-3-3-0-3-3-3-0-3-3-3-0-3-3-3-5-|
|---------------------------------|

|---------------------------------|
|---------------------------------|
|-5-5-5-0-5-5-5-0-5-5-5-0-5-5-5-8-|
|---------------------------------|

|---------------------------------|
|---------------------------------|
|-------------------------------3-|
|-1-1-1-0-1-1-1-3-3-3-3-0-3-3-3---|

|---------------------------------|
|---------------------------------|
|-3-3-3-0-3-3-3-0---------0-0-3-3-|
|-----------------1-1-3-3---------|
PRE CHORUS
|---------------------------------|
|---------------------------------|
|-2-2---2---0-0---0-----3--2------|
|-----2---------0-------------3---|

|---------------------------------|
|---------------------------------|
|-2-2---2---0-0---0-----3-3-3-3-3-|
|-----2---------0-----------------|
CHORUS
|--------------------------------------------------|
|--------------------------------------------------|
|-0>-2-3---2>-5-3---5>-3-2---0-0---0-0---0-0---0-0-|
|--------------------------------------------------|

|--------------------------------------------------|
|--------------------------------------------------|
|-8>-5-3---5>-3-2---0>-2-3---0-0---0-0---0-0---0-0-|
|--------------------------------------------------|

THATS IT, ENJOY

OptimusPrime

Submitted by OptimusPrime at Sun 01 Dec, 2002 9:39 am

Author: ?
Composer: ?
Publisher: ?
Language: English

Reactions

CommonCrawl [Bot]

Follow Muzikum