Eskimo Toccata

Eskimo Toccata
Lost For Words (Bass tab)

LOST FOR WORDS
BY ESKIMO TOCCATA (BEAMES)
TABBED BY BRYSON GORE

INTRO/INTERLUDE
|-------------|
|-------------|
|-------------|
|-0------3--5-|

MAIN RIFF
|---------------------------------|
|---------------------------------|
|---------------------------------|
|-X-0-0-0-0-0-0-0-3-3-3-0-5-5-5-0-|

|---------------------------------|
|---------------------------------|
|-----------------------3---------|
|-X-0-0-0-0-0-0-0-3-3-3---5-5-5-3-|

OTHER RIFF X3
|--------------------------|
|--------------------------|
|-7--7--7--7--10--10\-0--0-|
|--------------------------|

|--------------------------|
|--------------------------|
|-7--7--7--7---------------|
|-------------3---3---5--5-|

OptimusPrime

Submitted by OptimusPrime at Sun 01 Dec, 2002 9:39 am

Author: ?
Composer: ?
Publisher: ?
Language: English

Reactions

CommonCrawl [Bot]

Follow Muzikum