Eskimo Toccata

Eskimo Toccata
I Cant Be Sure (Bass tab)

I CAN'T BE SURE
BY ESKIMO TOCCATA (GLYNN)
TABBED BY BRYSON GORE

INTRO
|--------------------------------------------------|
|--------------------------------------------------|
|-------------0-0-0-0--------------4-4-4-4-0-0-0-0-|
|-0-0-0-0------------------0-0-0-0-----------------|

VERSE
|-----------------------------------------------------------------|
|-----------------------------------------------------------------|
|-----------------0---0--0--0-0-0---------4-4-4-4-0-0-0-0-0-0-0-0-|
|-0---0--0--0-0-0-----------------0-0-0-0-------------------------|

BRIDGE
|-------------|
|-------------|
|-0>-2>-0>----|
|----------0>-|

CHORUS 1. 3. 2. X3
|---------------------------------|---------------|---------------|
|---------------------------------|---------------|---------------|
|-5--5-------------5------------5-|-5--5--7-7-5-5-|-5--5--9-9-7-7-|
|-------5-7--7--7----5--5--5--7---|---------------|---------------|

|-------------------------------------------------|
|-------------------------------------------------|
|-4-4-4-4-4-4-4-4-2-2-2-2-2-2-2-2-0---------------|
|-------------------------------------------------|

OptimusPrime

Submitted by OptimusPrime at Sun 01 Dec, 2002 9:39 am

Author: ?
Composer: ?
Publisher: ?
Language: English

Reactions

CommonCrawl [Bot]

Follow Muzikum