Blue Blue Band

Blue Blue Band
Why (Guitar chord)

#research. Remember to view this file in Courier, or other monospaced font. #
#See http://www.olga.net/faq/ for more information. #


Subject: b/blue_blue_band/why.crd

----------------------------
Why? - By The Blue Blue Band
----------------------------
Transcribed By Max Bylesj´┐Ż

Remarks : I became astonished when I heard about TBBB's comeback; I've listened
to one of their earlier demo's, and they sucked like hell! I took for granted
that these losers quit years ago, but suddenly they played this nice song
on the radio all the time, and I found out that it actually was TBBB!
So here's a transcription, I think this is right, but I don't know for sure
'cause their guitarist is doing some real cool stuff. Probably the best
guitarist since Ollie McPherson, and he could play solos with his eye-balls!


All strings tuned down one whole step

Riff 1------------------------------| Fill 1--------------------|
Cm Csus2 Cm
D||---------1---------------0-------| |---------1-----3-1-0-----|
A||-----3-----3---3-----3-----3---3-| 3 |-----3-----3---------3-2-|
F||---2---2-----2-----2---2-----2---| / |---2---2-----2-----------|
C||-0---------------0---------------| 4 |-0-----------------------|
G||---------------------------------| |-------------------------|
D||---------------------------------| |-------------------------|

Fill 2---------------------------------------|
Grad. rit. -----------|
Cm
D|---------1-----3-1-0-----------|-----------|
A|-----3-----3---------0h2-0h2-3-|-----------|
F|---2---2-----2-----------------|-2-(2)---2-|
C|-0-----------------------------|-----------|
G|-------------------------------|-----------|
D|-------------------------------|-----------|


Riff 2
1--------------------------------||
Gm |-3-| | Eb/G |-3-|
D||--0--0--0--0-0-0-0--0-0-0-0-0-0-|-0--0--0--0-0-0-0--0-0-0-0-0-0--||
A||--0--0--1--1-1-1-0--0-0-1-0-1-0-|-0--0--1--1-1-1-0--0-0-1-0-1-0--||
F||o-2--2--2--2-2-2-2--2-2-2-2-2-2-|-2--2--2--2-2-2-2--2-2-2-2-2-2-o||
C||o-2--2--2--2-2-2-2--2-2-2-2-2-2-|-3--3--3--3-3-3-3--3-3-3-3-3-3-o||
G||--0--0--0--0-0-0-0--0-0-0-0-0-0-|-0--0--0--0-0-0-0--0-0-0-0-0-0--||
D||--------------------------------|--------------------------------||
(end riff 2)
2-------------------------------|
| Bb |-3-|
D|-0--0--0--0-0-0-0--0-0-0-0-0-0-|
A|-0--0--1--1-1-1-0--0-0-1-0-1-0-|
F|-0--0--0--0-0-0-0--0-0-0-0-0-0-|
C|-2--2--2--2-2-2-2--2-2-2-2-2-2-|
G|-3--3--3--3-3-3-3--3-3-3-3-3-3-|
D|-------------------------------|

Riff 3
1--------------------------------|
Cm |-3-| | Gm |-3-|
D||--0--0--1--1-1-1-0--0-0-1-0-1-0-|-0--0--0--0-0-0-0--0-0-0-0-0-0--||
A||--3--3--3--3-3-3-3--3-3-3-3-3-3-|-0--0--1--1-1-1-0--0-0-1-0-1-0--||
F||o-2--2--2--2-2-2-2--2-2-2-2-2-2-|-2--2--2--2-2-2-2--2-2-2-2-2-2-o||
C||o-0--0--0--0-0-0-0--0-0-0-0-0-0-|-2--2--2--2-2-2-2--2-2-2-2-2-2-o||
G||--------------------------------|-0--0--0--0-0-0-0--0-0-0-0-0-0--||
D||--------------------------------|--------------------------------||

(end riff 3)
2-------------------------------|
| Bb |-3-|
D|-0--0--0--0-0-0-0--0--0--------|
A|-0--0--1--1-1-1-0--0--0--------|
F|-0--0--0--0-0-0-0--0--0--------|
C|-2--2--2--2-2-2-2--2--2--------|
G|-3--3--3--3-3-3-3--3--3--------|
D|-------------------------------|



Formula:
Riff 1 x2
Fill 1
Riff 1 x2
Fill 1
Fill 2
Riff 2 x2
Riff 3 (3/4) Then Grad. rit. while playing Bb
Riff 3
Riff 1 x3
Fill 2 (1/2) Then

Arpeggio
D|---------|
A|--3--(3)-|
F|--2--(2)-|
C|--0--(0)-| End!!
G|--0--(0)-|
D|---------|

OptimusPrime

Submitted by OptimusPrime at Sun 01 Dec, 2002 8:34 am

Author: ?
Composer: ?
Publisher: ?
Language: English

Reactions

CommonCrawl [Bot]

Follow Muzikum