Slapshock

Slapshock
F Ck You (Guitar tab)

-----------------------------------------------------------------------------
This file is the author's own work and represents their interpretation of the
song.You may only use this file for private study, scholarship, or research.
-----------------------------------------------------------------------------

SONG: F*ck You
BAND: Slapshock
ALBUM: Headtrip
TRANSCRIBED BY: Ron Moncada (rv_coc@hotmail.com)
website: http://justsayemo.musicdot.com ; http://cocband.musicdot.com

Tuning: Drop d tuning DADGBE
note: Slapshock's tuning is whole step down
DGCFAD. I only use drop d tuning in order to make the
song easier to play.

LEGEND:

/ or \ - slide up or down
p - pull off
h - hammer on
p.m. --- - palm mute
b - bend

Verse:
gtr.1 play this:
E--------------------------------
B--------------------------------
G--------------------------------(10x)
D--------------------------------
A--0--0-0-6-0-0--0-0-0-0-6-0-0---
D--0--0-0---0-0--0-0-0-0---0-0---
p.m. - - - -

while gtr.2 play this
E -10-10-10-11-10-10--10-10-10-10-11-10-10--10H11--
B -------------------------------------------------
G -------------------------------------------------(10x)
D -------------------------------------------------
A -------------------------------------------------
D -------------------------------------------------

Pre-Chorus:
gtr. 1
E-----
B-----
G-----
D--0--
A--0--
D--0--

gtr.2
E ---------------------
B ---------------------
G ---------------------(4x)
D ---------------------
A --5-5p3-5-5-5h6p5-3--
D ---------------------

Chorus:
E ---------------------
B ---------------------
G ---------------------(8x)
D --7-7/5-7-7-7/8\7-5--
A --5-5/3-5-5-5/6\5-3--
D ---------------------

E ----------------
B ----------------
G ----------------(8x)
D --0-7-0--5-7-8--
A --0-5-0--3-5-6--
D --0---0---------

Interlude:
E---------------------------------------------10-10-10-10--10-12-10-10-
B----------------------------------------------------------------------
G----------------------------------------------------------------------
D--0--0-0-1-0-0--0-0-0-0-1-0-0--0--0-0-1-0-0-0-------------------------
A--0--0-0-1-0-0--0-0-0-0-1-0-0--0--0-0-1-0-0-0-------------------------
D--0--0-0-1-0-0--0-0-0-0-1-0-0--0--0-0-1-0-0-0-------------------------
p.m. - - - - - -

Verse2: (do verse1 riff)

Interlude2:
E ------------------------------------
B ------------------------------------
G --------------------------7-7-7-7---
D --------------------------7-7-7-7---(4x)
A --------------------------5-5-5-5---
D --0----0-0-0--0---0--0--0-----------

E ------------------
B ------------------
G ------------------(4x)
D ------------------
A ----5----3-5-6----
D --0---0-----------
p.m.- - - - - -

E ------------------
B ------------------
G ------------------(12x)
D ------------------
A ----5----3-5-6----
D --0---0-----------
p.m.- - -

E ----------------
B ----------------
G ----------------(8x)
D --0-7-0--5-7-8--
A --0-5-0--3-5-6--
D --0---0---------

(rep. chorus)

Coda:
E ----------------
B ----------------
G ----------------(8x)
D --0-7-0--5-7-8--
A --0-5-0--3-5-6--
D --0---0---------

_end_

OptimusPrime

Submitted by OptimusPrime at Thu 14 Aug, 2003 6:21 pm

Author: ?
Composer: ?
Publisher: ?
Language: English

Reactions

CommonCrawl [Bot]

Follow Muzikum