Electrasy

Electrasy
Cosmic Castaway (Guitar tab)

Author/Artist: Electrasy
Title: Cosmic Castaway
Album: I forgot / Titan A.E. Sound Track
Transcribed by: Gordon Tubo and Wendy_Clear
Email: Blinkme@teengaedirtbag.com

Well, im still 14 years old, and its my first time to tab. But, I
friggin asure you that this tab is right. trust me. This song is
really cool. Listen to the record to get it. ok.

and hi to St. Teresa of Avila Students.

note: a capo is placed on the second fret. but the numbers
isn't relative to the capo.

and Electrasy is a very talented band. thank you very much for
creating such good music.




-|----------------------------------------------------------------------------
-|----------------------------------------------------------------------------
-|----------------------------------------------------------------------------
-|--8---8---------------8---8-------------------------------------------------
-|--------6--6/7\6------------6--6/7\6----------------------------------------
-|----6-------------7-----6------------7--------------------------------------
This is the Intro. It is repeated until chorus.

-|----|----|------|-----|----|----|-----|-------------------------------------
-|----|----|------|-----|----|----|-----|-------------------------------------
-|10--|6---|10-11-|11-13|-10-|-6--|-5--3|-10----------------------------------
-|11--|8---|10-10-|11-11|-11-|-8--|-6--4|-11----------------------------------
-|11--|8---|8--8--|9--9-|-11-|-8--|-6--4|-11----------------------------------
-|9---|6---|8--8--|9--9-|-9--|-6--|-4--2|-9-----------------------------------
Here are the first chorus chords. listen to the record to get the timing.

-|---|---|-------|------|----|------------------------------------------------
-|---|---|-------|------|----|------------------------------------------------
-|10-|-6-|-10-11-|-11-13|-10-|-6----------------------------------------------
-|11-|-8-|-10-10-|-11-11|-11-|-8----------------------------------------------
-|11-|-8-|-8--8--|-9--9-|-11-|-8----------------------------------------------
-|9--|-6-|-8--8--|-9--9-|-9--|-6----------------------------------------------
(second Chorus) Let us call this "the riff" to make things easy later.

-|---|------------------------------------------------------------------------
-|---|------------------------------------------------------------------------
-|-5-|-4-3--------------------------------------------------------------------
-|-6-|-6-4--------------------------------------------------------------------
-|-6-|-6-4--------------------------------------------------------------------
-|-4-|-4-2--------------------------------------------------------------------
play "the riff" and play this.

-|-----|----------------------------------------------------------------------
-|-----|----------------------------------------------------------------------
-|-5-3-|-10-------------------------------------------------------------------
-|-6-4-|-11-------------------------------------------------------------------
-|-6-4-|-11-------------------------------------------------------------------
-|-4-2-|-9--------------------------------------------------------------------
play "the riff" again and play this.

---|---|---|---|--------------------------------------------------------------
---|---|---|---|--------------------------------------------------------------
-5-|-5-|-5-|-5-|--------------------------------------------------------------
-6-|-6-|-6-|-6-|--------------------------------------------------------------
-6-|-6-|-6-|-6-|--------------------------------------------------------------
-4-|-4-|-4-|-4-|--------------------------------------------------------------
bridge for the verse and the 3rd chorus, play the second chorus.

-|-------13-11-11-11-11----|-------------------------|------------------------
-|-14-14----------------14-|-11-11-14-13-13-13-13-11-|------------------------
-|-------------------------|-------------------------|------------------------
-|-------------------------|-------------------------|------------------------
-|-------------------------|-------------------------|------------------------
-|-------------------------|-------------------------|------------------------
and finally, the friggin cool outro!! just figure out the variation. im too

-|-13-13-13-14-14-14-14-13-|--14-14-14-16-16-16-16-16-------------------------
-|-------------------------|--------------------------------------------------
-|-------------------------|--------------------------------------------------
-|-------------------------|--------------------------------------------------
-|-------------------------|--------------------------------------------------
-|-------------------------|--------------------------------------------------
tired to write it. its simple..... then..... fade out!! yeah!!!

OptimusPrime

Submitted by OptimusPrime at Sun 01 Dec, 2002 9:44 am

Author: ?
Composer: ?
Publisher: ?
Language: English

Reactions

CommonCrawl [Bot]

Follow Muzikum