Deconstruction
L A Song (Guitar tab)

Date: Fri, 30 Aug 2002 21:49:58 -0400
From: Eric V Rundquist
Subject: d/deconstruction/l_a_song.tab

Deconstruction
^�L.A. Song^�
Music by: Avery/Navarro/Murphy/B. Carman/ B. Spickard
Lyrics: Eric Avery
Transcription: Thor Rundquist
I transcribed this myself and as I am not a professional you may find mistakes.
It^� s OK, I won^�t be offended if you let me know.

Intro riff: Acoustic guitar w/ chorus effect. Let ring
e---------------------------------]
B---------------------------------] This gets repeated
G---------------------------------] over and over again
D-----5-------5-------5-------4---] under the next part
A---5---5---5---5---5---5---5---5-]
E-5-------3-------5-------5-------]

Clean riff: Electric guitar w/ crisp tone. Let ring
e---0-----------5----------0-----]
B-----1-------7---7----------3---]
G-------2---7-------7----2-----2-]
D---------0----------------------]
A-0------------------------------]
E--------------------------------]

Heavy part after ^�and make the desert grow^�^�
P.M.-] P.M.-] P.M.]
e---------------------------------------------]
B---------------------------------------------]
G-----------x-x---x--------------x--x-x-------]until^�
D------9-9--x-x---x--7-------9-9-x--x-x-----7-]
A------7-7--x-x---x--5-------7-7-x--x-x-----5-]
E-0--0------x-x---x-----0--0-----x--x-x-0-0---]

^�Move out flat don^�t rise^�^� Funk riff: w/bar
e------------------------------------------] 1st e-12^11-
B------------------------------------------] end B-12^11-
G-7-7-7-7-x-x-7-7-7-7-x-x-7-7-x-x-7-7-7-7--] G-------
D-6-6-6-6-x-x-6-6-6-6-x-x-6-6-x-x-6-6-6-6--] D-------
A-7-7-7-7-x-x-7-7-7-7-x-x-7-7-x-x-7-7-7-7^�-] A-------
E------------------------------------------] E-------


Funk riff again e--------------] e-------------
2nd B--------------] 3rd B---------8b9-
end G----7---9p7---] end G-8p7---7-----
D-/6---6-----6-] D-----6-------
A--------------] A-------------
E--------------] E-------------


16th note riff at ^�^�roll up your windows^�^�
P.M.----] P.M.----]
e----------------------------------------------------------
B----------------------------------------------------------
G----------------------------------------------------------
D-------------------------------------------------6p0------
A---------7p5p0h5-5p0-----6p0-------------7p0-5p0-----5p0--
E-0-0-0-0-------------5p0-----5p0^�0-0-0-0-----------------

P.M.----] P.M.---]
e----------------------------------------------------------
B----------------------------------------------------------
G----------------------------------------------------------
D-6p0------------------------------------------------------
A-----5p0----------7p5p0h5-5p0-----6p0--------------7p0-5p0
E----------0-0-0-0-------------5p0-----5p0--0-0-0-0--------

e-----------------]
B-----------------] This gets repeated a bunch of times
G-----------------] until the surf bass interlude
D-8p0-6p0-8p0-6p0-]
A-----------------]
E-----------------]

Ending chords: strum ^�em even they^�re not tabbed strummed
e--0----0------0---0--]
B--3---/15-----3---3--]
G�-2---/14-----0---2--]
D--0----0------2---0--]
A--0----0------3---0--]
E---------------------]

Copyrights
Author: ?
Composer: ?
Publisher: ?
More details
Language: English

Reactions

CommonCrawl [Bot]

Follow Muzikum