Johann Sebastian Bach
Bouree Ver 2 (Guitar tab)

submitted by treyrab
treyrab@hotmail.com

2X
||--0--2--3--2--0--------0--2---------------0-----------
||------------------4------------0----2--4-------3--1---
||------------------------------------------------------
||------------------------------------------------------
||-----------0------2----0------------------------------
||--3--2--0----------------------3----2-----0----2------

------------------------------------------0--2----3----2--0-------0--2--
-0---------------------0-------------------------------------4----------
------2--0-------0--2-----2--0------------------------------------------
------------4--------------------4--2-----------------------------------
------0-----2----0-----------2-------------------------0-----2----0-----
-3---------------------3------------0--2--3--2----0---------------------

------------------------------------------------||
--0----2--4--5----3--1---0----------------------||
-----------------------------2--0---------0---0-||
-----------------------------------4----------0-||
-----------------------------3-----5---5------2-||
--3----2-----0----2------3--------------------3-||

---------------------------3------0--------------------
-0--------3-------1--0--------3--------0--3--1---------
-----0---------2----------------------------------4--2-
---------------0----------------------------------0----
---------------------------2------3----------0---------
-3--------2----------3-----------------4---------------

-------------------------------------------------------3------0----------
------------1-----------------------------3-------0-------3--------0--3--
--1---2--4-------4--2---2--------------------2---------------------------
--2---------2------------------------------------------------------------
------0-----------------0--2--0------------------------2------3----------
-----------------0---------------3--2-----2-------3----------------4-----

-------5-------------0--------------------------------------------7-----
--1-------5--7----2-------3----2-------------0---0-------------------7--
----------------------------------4--3----------------------------------
-------------0-----------------2-----4-----------------------1----------
--0----4----------1-------2----------------------2--1--2--4-------------
------------------------------------------2-----------------------7-----

--4---2-0--5--0--3--2--0-----3-----1--0--5--0--2-----0-----------------0-
--------------------------3-----3-----------------2-----4--0-------------
-------------------------------------------------------------------------
--2---0-------------0----------------------------------------------------
-----------4--0--------3-----2--------3--2-----0--------2-----3--2--0----
--------------------------------3-----------------2--------------------4-

----------------------------------------------------------------------
-0--1-----3-----0-----1-----------------------------------------------
-------------2-----------0--2-----4------------------------0----------
-------2--4--------1--2--------------4--5--4--2--1---2--4-----4--2--2-
----0--------------------------4--6--------0-----2---0-----2----------
----------------3-----------2-----------0---------------------------0-

Copyrights
Author: ?
Composer: ?
Publisher: ?

Reactions

CommonCrawl [Bot]

Follow Muzikum