Johann Sebastian Bach
Partita No. 1 (Guitar tab)

Another simple Bach piece, not much to this one. The key is B minor, and it's in 9/8 time. It's
all eighth notes grouped in threes, not triplets though. That pretty much explains it all.


Partita No. 1
by JS Bach
transcribed by Maestro


E|-------14-15----------17-15-|-14-------------------------|----------------------------|
B|----15-------17-15-14-------|----15-14-15----------15-14-|-------------17-15----------|
G|-16-------------------------|-------------14-------------|-16-------------------18-16-|
D|----------------------------|----------------16----------|----17-16-14-------15-------|
A|----------------------------|-------------------17-------|----------------------------|
E|----------------------------|----------------------------|----------------------------|

E|----------------------------|----------------------------|----------------12----14-12-|
B|----19-14-------------------|-------12----12-------------|-------------14-------------|
G|-15-------15----------------|----------------14----14-12-|----------12-------15-------|
D|-------------17-16-14-------|-12-16----------------------|-------14-------------------|
A|----------------------17-16-|----------16-------14-------|-12-16----------------------|
E|----------------------------|----------------------------|----------------------------|


1.------------------------| 2.-------------------------|
Bmin
E|-------------12-10----------|----------14-15-14-----------|-14-9-------------------7---||
B|-15-12-------------14-11-12-|-------14----------17-15-14--|------11-12-----------7-----||
G|-------14-12----------------|----15----------------------*|--------------------7-------||
D|----------------------------|-16-------------------------*|------------------9---------||
A|----------------------------|-----------------------------|----------------9-----------||
E|----------------------------|-----------------------------|--------------7-------------||

  • Maestro1

    Submitted by

    Maestro1 at Wed 27 Oct, 2004 9:58 pm

  • <
Copyrights
Author: ?
Composer: ?
Publisher: ?

Reactions

CommonCrawl [Bot]

Follow Muzikum