Johann Sebastian Bach
Toccata (Guitar tab)

This song is not difficult, it's a typical Bach-esque piece. In the little arpeggio section be
sure to use economy picking, not sweeping. There are a lot of position changes, so be careful. Be
sure to play it staccato (not rigid), and use alternate picking. That's about it.


"Toccata"
by JS Bach
Transcribed for guitar by Maestro


E|---------------------------------|------------------------|------------------------|
B|---------------------------------|------------------------|------------------------|
G|---7-6-7---7-6-7---7-6-7---7-5-7-|----7------------5----5-|----5-----------3-----3-|
D|---------7-------3---------------|-8--------8-------------|-7--------7-------------|
A|-5-----------------------5-------|------10-----7----------|-------8-----5----------|
E|---------------------------------|-------------------8----|-------------------6----|

Bar-| Bar-|
E|------------------------|------------------------|----------------------5-------|
B|------------------------|------------------------|------------6-5-----5---------|
G|----3-----------2-----2-|----2-----3-------------|-------7--------7-6-----------|
D|-5--------5-------------|-3-----------2--5-----7-|-----7-------------------7----|
A|-------7-----4----------|-------5-----------4----|-5-8-----5--------------------|
E|-------------------5----|------------------------|----------------------------5-|

Bar-----| Dmin (Hold Shape)
E|-----------5--/10-13-12-10-17-12-------------------------------10-|
B|-8-6-5---6-----------------------14-------------------------10----|
G|-------7----------------------------14-------------------10-------|
D|---------------------------------------14-------------12----------|
A|------------------------------------------16-12----12-------------|
E|------------------------------------------------10----------------|

  • Maestro1

    Submitted by

    Maestro1 at Wed 27 Oct, 2004 12:00 am

  • <
Copyrights
Author: ?
Composer: ?
Publisher: ?

Reactions

CommonCrawl [Bot]

Follow Muzikum