Johann Sebastian Bach
Variation On A Theme (Guitar tab)

This is some kind of a violin suite that Bach did. I'm not sure what the exact name of it is, but
I think Yngwie Malmsteen uses part of it in a song. It's in cut time (2/4) and it's all sixteenth
notes at a pretty fast tempo, about 130-140bpm. The last three measures aren't all sixteenth
notes, but you can work it out. Here it is.

"Theme"
by JS Bach
transcribed by Maestro


Dmin C Bmin7(b5) Amin
E|-10-13-12-13-10-13-12-13-|-8-12-10-12-8-12-10-12-|-7-10-8-10-7-10-8-10-|-5-8-7-8-5-8-7-8-|
B|-------------------------|-----------------------|---------------------|-----------------|
G|-------------------------|-----------------------|---------------------|-----------------|
D|-------------------------|-----------------------|---------------------|-----------------|
A|-------------------------|-----------------------|---------------------|-----------------|
E|-------------------------|-----------------------|---------------------|-----------------|


Dmin C Bmin7(b5) G#dim Amin
E|-10-13-12-13-7-10-8-10-|-8-12-10-12-5-8-7-8-|-7-10-8-10-4-7-5-7-|-5-8-7-8-5-8-7-8-|
B|-----------------------|--------------------|-------------------|-----------------|
G|-----------------------|--------------------|-------------------|-----------------|
D|-----------------------|--------------------|-------------------|-----------------|
A|-----------------------|--------------------|-------------------|-----------------|
E|-----------------------|--------------------|-------------------|-----------------|


G#dim Amin G7 C
E|-4-7-5-7-7-10-8-10-|-5-8-7-8-5-8-7-8-|-7-10-8-10-10-13-12-13-|-8-12-10-12-8-12-10-12-|
B|-------------------|-----------------|-----------------------|-----------------------|
G|-------------------|-----------------|-----------------------|-----------------------|
D|-------------------|-----------------|-----------------------|-----------------------|
A|-------------------|-----------------|-----------------------|-----------------------|
E|-------------------|-----------------|-----------------------|-----------------------|


G#dim7
E|-10-13-12-13------------|-------------------|-----------------|-----------------|
B|-------------9-12-10-12-|-------------------|-----------------|-----------------|
G|------------------------|-7-10-9-10---------|-----------------|-----------------|
D|------------------------|-----------6-9-7-9-|-----------------|---------6-7-9-6-|
A|------------------------|-------------------|-5-8-7-8---------|-5-7-8-5---------|
E|------------------------|-------------------|---------4-5-7-4-|-----------------|


Amin
E|-13-12-10------------|-----------------|----------------5-|
B|----------13-12-10/9-|-----------------|-------------5----|
G|---------------------|-10-9-7----------|----------5-------|
D|---------------------|--------10-9-7/6-|-------7----------|
A|---------------------|-----------------|----7-------------|
E|---------------------|-----------------|-5----------------|

  • Maestro1

    Submitted by

    Maestro1 at Fri 22 Oct, 2004 6:49 pm

  • <
Copyrights
Author: ?
Composer: ?
Publisher: ?

Reactions

CommonCrawl [Bot]

Follow Muzikum