Johann Sebastian Bach
1st Suite For Cello (Guitar tab)

--- Prelude to 1st Suite for Cello Joan-Sebastian Bach ---
(BWV 1007 as played by Lluis Claret)
(Adapted and tabbed for guitar by Bidoche: benleconiat@hotmail.com)

To be played with regularity and rythm (like other Bach tunes).
Take example on the version from Lluis Claret. Enjoy!
Minimize left and right margins in the page setup for printing and better readability.


e|-----------------------------------------------------------------------------------
B|-----12-10-12---12--------12-10-12---12--------13-12-13---13--------13-12-13---13--
G|---7----------7----7----7----------7----7----9----------9----9----9----------9----9
D|-----------------------------------------------------------------------------------
A|10-------------------10-------------------10-------------------10------------------
E|-----------------------------------------------------------------------------------



e |--------------------------------------------------------------------------------
B |------13-12-13----13----------12-10-12----12----------12-10-12----12---------12-
G |---11----------11----11----12----------12----12----12----------12----11----9----
D |--------------------------------------------------------------------------------
A |10----------------------10----------------------10----------------------10------
E |--------------------------------------------------------------------------------


e |------------------------------------------------------------------------------
B |10-12-------------------------------------10----10----10----------10----10----
G |------12-11-12-9-12-11-12--------------12----12----12----12----12----12----12-
D |--------------------------9-12-11-9-11----------------------11----------------
A |------------------------------------------------------------------------------
E |------------------------------------------------------------------------------


e |------------10-9-10------------------------------------------------------------
B |10-------10---------10-8-10-7-10-8-10--------------8-7-8---8-------8-7-8---8---
G |---12-11------------------------------7-11-9-7---------------------------------
D |-------------------------------------------------9-------9---9---9-------9---9-
A |-----------------------------------------------7---------------7---------------
E |-------------------------------------------------------------------------------


e |----------------------10-9-7------------10----10----------------------------
B |----------------8-7----------10-8-7--------10----7-10--------10-8-7-----9---
G |--6-7-9-7-6---------9---------------9-7---------------7-9-11--------9-7---7-
D |------------9-7-------------------------------------------------------------
A |7---------------------------------------------------------------------------
E |----------------------------------------------------------------------------



e |--------------7-------------------------7-8----------------7-8---------------
B |----------9-----------------9--------10-----10----------10-----10-7----------
G |10-9-10-7---7---7-10-9-10-7---7----9-----------9-7----9-------------9-8-11-8-
D |--------------------------------10-----------------10------------------------
A |-----------------------------------------------------------------------------
E |-----------------------------------------------------------------------------



e |-------------------------------------------------------------------------------
B |---10----10--------------10----10----8-7---8-7-8-10-7-8-7----------------------
G |11----11----11-8-11-8-11----11----11-----9----------------9-7----------------7-
D |--------------------------------------------------------------10-9-7------10---
A |---------------------------------------------------------------------10-9------
E |-------------------------------------------------------------------------------



e |-------------------------------------------------------------------------------
B |-------------------------------------------------------------------------------
G |---7----7---------7----7----7---------10-9-10---10--------10-9-10---10---------
D |10---10---10---10---10---10---10----9---------9----9----9---------9----9----10-
A |-------------9-------------------10------------------10------------------10----
E |-------------------------------------------------------------------------------




e |-----------------------------------------------------------------------------
B |---------------------------------------13-12-13----13---------13-12-13----13-
G |9-7-9----9----------9-7-9----9------11----------11----11---11----------11----
D |------10---10----10-------10---10--------------------------------------------
A |--------------10------------------9----------------------9-------------------
E |-----------------------------------------------------------------------------




e |---------------------------------------------------------------------------------
B |--------12-10-12-8-7-------------------------------------------------------------
G |11----7--------------9-7----------------------9-11-12-9-11-12-----9-11-12-9-11-12
D |-------------------------10-9-7-------------7-------------------7----------------
A |---10---------------------------10-9-7-------------------------------------------
E |---------------------------------------10-9-------------------9------------------




e |----------------------------------9-10-|
B |-------------------------------10------|
G |----7-9-11-----7-9-11-----7-11---------|
D |--7----------7----------7--------------|
A |---------------------------------------|
E |8----------8----------8----------------|


e |----------------------------------7-8-----------7-8-10-11-10-9-10-10-8-7-8-8-
B |--------------8-10-----------8-10-----10-7-8-10------------------------------
G |-------7-9-11------11-7-9-11-------------------------------------------------
D |7-9-10-----------------------------------------------------------------------
A |-----------------------------------------------------------------------------
E |-----------------------------------------------------------------------------



e |-----------------------------------------------------------------------------
B |10-7---------------------------10-12-13-10-12--------------------------------
G |-----9-7--------------------11----------------12-----------------------------
D |---------7-9-10----------12----------------------12-10-9-------9----------12-
A |----------------------12---------------------------------10-12---------12----
E |----------------10-10--------------------------------------------10-10-------


e |------------9------------------------------------------------------------------
B |---10-12------11-10-11-11-10-9-10-10-8-7-8-8-----------------------------------
G |12-------12----------------------------------9-6-----------------------6-7-6-7-
D |-------------------------------------------------9-7-----------------7---------
A |-----------------------------------------------------7-9-10-----7-10-----------
E |------------------------------------------------------------5-9----------------


e |--------------------------------|
B |--------------------------------|
G |--------------------------------|
D |7-4---4-7---4-------------------|
A |----7-----5-----5-4-----------5-|
E |--------------5-----7-5-3-2-0---|



e |8-7------------7-------------------------------------------5-----
B |----10-8-7-------10-8-7----------10-8-7------------8-7---7-----5-
G |-----------9-7----------9-7-------------9-7------------9---------
D |----------------------------10-9------------10-9-7-----------0---
A |-----------------------------------------------------------------
E |-----------------------------------------------------------------



e |------------------10-------------------------------------------------------
B |--7---8---5---7--------8---5---7---3---8---5---7---3---5---7---8---10---12-
G |---------------------------------------------------------------------------
D |0---0---0---0---0----0---0---0---0---0---0---0---0---0---0---0---0----0----
A |---------------------------------------------------------------------------
E |---------------------------------------------------------------------------


e |------------------------------------------------------------------
B |----------12---13-------10---12---13---10---12---10---12-------10-
G |--7---7-------------7--------------------------------------7------
D |0---0---0----0----0---0----0----0----0----0----0----0----0---0----
A |------------------------------------------------------------------
E |------------------------------------------------------------------


e |-------------------------8---10--------8---------------------------------------
B |------12---8---10---12------------12-------10---12---10---12---8---10---8---10-
G |--7----------------------------------------------------------------------------
D |0---0----0---0----0----0---0----0----0---0----0----0----0----0---0----0---0----
A |-------------------------------------------------------------------------------
E |-------------------------------------------------------------------------------



e |------------------------------------------------------------------------------
B |--7---8---7---8---5---7-------------------------------------------------------
G |--------------------------------1---2---3---4---5---6---7---8---9---10---11---
D |0---0---0---0---0---0---0-2-3-0---0---0---0---0---0---0---0---0---0----0----0-
A |------------------------------------------------------------------------------
E |------------------------------------------------------------------------------



e |---------------------------------------------------------------------------
B |---------------------------------------------------------------------------
G |12--------12---12---12--------12---12---12--------12---12---12--------12---
D |---9----9----9----9----9----9----9----9----7----7----7----7----7----7----7-
A |-----10------------------10------------------10------------------10--------
E |---------------------------------------------------------------------------

n
.
e |---------------------------------------------------------------------------|
B |------------------------------------------------------12-------------------|
G |12---11---------11----11----11---------11----11-------12-------------------|
D |---7----10---10----10----10----10---10----10----10-9--12-------------------|
A |-----------9----------------------9-------------------10-------------------|
E |---------------------------------------------------------------------------|
Let Ring~~~~~~~~~~~~~~

Copyrights
Author: ?
Composer: ?
Publisher: ?
More details
Language: English

Reactions

CommonCrawl [Bot]

Follow Muzikum