Johann Sebastian Bach
Invenzione (Guitar tab)

DADGAD INVENZIONE JS Bach

Allegro/Moderate

{// } rest { = } PO's, HO's, triplets & ties [ alt fingering ( ) ]

Set to 10pt text

_______ __________ __________ ______________
|___|___| |___|___|___| | |___|___| |___|___|___|___|
| | | | | | | | | | | |___| | | |
/ / / / / / / / / / / / / / / /

------------------------------------------------------------------------------|
--------------------------------------------3---------2===0---2---3----------|
-C--//-------------------------------0--------------------(2)-----------------|
------------0---2---3---0---2---3----------0---2-----3--------0---2---------| 1
--------3--------------------------------3-----------------------------3----- |
------------------------------------------------------------------------------|

_________ _________ __________ _____________
|__|___|___| |__|___|___| | |___|___| |___|___|___|___|
| | | | | | | | | | | | |___| | | |
/ / / / / / / / / / / / / / / / /

--------0-------------------------------0------5-------3===2---3---5---------|
----------------0------3-----------------------0-------3--------0---2---------|
------------0-------4-----2----------------0------4---------------------0-----|
--------0---------------------4------------------------------------------------| 2
----------------------------------5--------------------------------------------|
----------------5--------------------------------------------------------------|

__________ __________ __________ __________
|___|___|___| |___|___|___| |___|___|___| |___|___|___|
| | | | | | | | | | | | | | | |
/ / / / / / / / / / / / / / / /
cresc - - - - - - - - - - - - - - - - - - - - >
------------7--5-------------5------7----5--------------------2---0---3------|
--------7---------8-----7--------8-------7---8---7---5---3-------------------|
--------5------0--------5--------7---------------0--------2-------4----------|
-------------------------------------------------------------------------------| 3
-------------------------------------------------------------------------------|
-------------------------------------------------------------------------------|

__________ __________ __________ __________
|___|___|___| |___|___|___| |___|___|___| |___|___|___|
| | | | | | | | | | | | | | | |
/ / / / / / / / / / / / / / / /
- - - - - - - - - - - - - - - - - - - - - - - - >
--------2--0------------------------0----------------------------------------|
--------3------3--------0---3------------3-------0-----------0------2-------|
-------------------4-------------------------4----4---0----------0-----------|
---------------2--------3-------4--------------------------3-----------------| 4
--------------------------------5--------0-----------------3-----------------|
------------------------------------------------------------------------------|

__________ ______________ __________ __________
| |___|___| |___|___|___|___ | |___|___|___| |___|___|___|
| | | | |___| | | | | | | | | | | |
/ / / / / / / / / / / / / / / / /
- - - - - - - - - - - - - - - - - - - - - - - >|
-----------------------------------------0-------------------------------------|
------------------------3===2---3-----------2---0----------------0------2----|
--------2---------------0--------------------0-------0---------------0--------|
------------0---2---4-----------2---4---0---------------4-----2--------------| 5
-------//--------------------------------------------2---------3--------------|
-------------------------------------------------------------------------------|

__________ __________ ______________ _____________
|___|___|___| |___|___|___| |___|___|___|___| |___|___| |___|
| | | | | | | | | |___| | | |___| | | |
/ / / / / / / / / / / / / / / / / /

------------------------0-------2----0--------------5--------------------------|
----------------------------3-----------2===3---5-------2===3---2------------|
---0---4---2---5---4-------------------------------------------------2===0---|
---2-------3--------5------2-----------------------------0-----------0--------| 6
-------------------------------------2--------------3--------------------------|
-------------------------------------------------------------------------------|

_ _______ __________ __________ __________
| |___|___| |___|___|___| | |___|___| |___|___|___|
| | | | | | | | | | | | | | | |
/ / / / / / / / / / / / / / / /

--------------------------------------------------------------------------------|
---------------------------------------------------0--2----3---0---2-----------|
--------0-------------------------------------0---0----------------0---0-------|
-------(5)--------------------------------0-----------------4-------------------| 7
----------------0---2---3===0---2---------------------------------------------|
------------5-----------------------5------------------------------------------|

__________ __________ __________ __________
|___|___|___| |___|___|___| |___|___|___| |___|___|___|
| | | | | | | | | | | | | | | |
/ / / / / / / / / / / / / / / /

-----------------------------------------------------------0--------------------|
----------------------------------------------0---2---3-------2---3------------|
--------2----------------0----------------2----------------------------2-------|
--------4---5---2---4-------2---4----------------0---------------0------------| 8
-------------------------------------5---------------------3-------------------|
--------------------------------------------------------------------------------|

__________ __________ __________ __________
|___|___|___| |___|___|___| | |___|___| |___|___|___|
| | | | | | | | | | | | | | | |
/ / / / / / / / / / / / / / / /

---------------------------------------------0-------------------------0-------|
-------------------------------------------------3---------0---3---------------|
--------4---0-----------------------0---------------4--------------4----------|
-----------(5)--3---2---0---3---2--------3------2---------3--------0---------| 9
-------------------------------------------------------------------------------|
--------5---------------------------------------------------------------------|

__________ __________ __________ __________
|___|___|___| |___|___|___| |___|___|___| |___|___|___|
| | | | | | | | | | | | | | | |
/ / / / / / / / / / / / / / / /

---------------------------------------------2---0---------------------2------|
--------3---------------------------------------------3----2---3---4----------|
------------2---0-----------0-------2----0----------------0-------------------|
--------2-----------3---2-------3---------------3------------------2----------| 10
-------------------------------------------------------------------------------|
-------------------------------------------------------------------------------|

__________ __________ __________ __________
|___|___|___| |___|___|___| |___|___|___| |___|___|___|
| | | | | | | | | | | | | | | |
/ / / / / / / / / / / / / / / /

--------0---------------0-----------------3-----------------------------------|
---------------4------------0---2---------0-------0-------2-------3----------|
-----------3---2---0--------2---0---3--------0------------------------0------|
--------3---------------3-------------------------3---2---0---3---2----------| 11
------------------------------------------------------------------------------|
------------------------------------------------------------------------------|

__________ __________ __________ __________
|___|___|___| |___|___|___| |___|___|___| |___|___|___|
| | | | | | | | | | | | | | | |
/ / / / / / / / / / / / / / / /

--------0-------------------------------------------------0-------------------|
-----------------------------------------2-------3----------------------------|
------------------------1-------2---------------------------------------------|
--------3---2---4-----------0-------2---0------------------------------------| 12
----------------5---3---2-------3-----------3---2---0--------2---0---3------|
----------------------------------------------------------6-------------------|

__________ _____________ __________ __________
|___|___|___| |___|___|___|___| |___|___|___| |___|___|___|
| | | | |___| | | | | | | | | | | |
/ / / / / / / / / / / / / / / / /
|----- ! ---->
-------0-------------------------------------2---0-------2---0-----------0----|
------------------------(0)---------------------------3------------3-----------|
--------------------1----2------------0-------------------------------4--------|
-----------2---4---(6)---0===-----3------2------------------------------------| 13
-------2----------------(5)===3---5---------3---2---0------------0------------|
---------------2------------------------------------------5---4-------6--p9-S>-|

__________ __________ __________ _____________
|___|___|___| |___|___|___| |___|___|___| |___|___| |___|
| | | | | | | | | | | | |___| | | |
( � ) / / / / / / / / / / / / / / / / /
|----wow!--------------->
--------------------9---7------------0----------------0-------0-----------------|
------------7---9------------7---8-----------8---7--------3------3---2---------|
---------------------------------------------------------------------------2-----|
-------r10----------0------------0-------6-------7--------2--------------------| 14
--------0--------------------7-------8---7--------------------------------------|
----------p(10)-(9)----(10)--------------------------------------------2---------|

__________ __________ _______ __________
|___|___|___| |___|___|___| | |___|___| |___|___|___|
| | | | | | | | | | | | | | | |
/ / / / / / / / 0 / / / / / / /
------------< >------------ ------------< >------------
------------7---5-----------5-------7----5============================|
--------0-----------8---7-------8------------7----------------5-------7----|
--------------------------------------------------7---5---4--------6--------|
-----------------------------------------//----------------------------------| 15
--------0--------------------------------------------------------------------|
-----------------------------------------------------------------------------|

__________ __________ __________ __________
|___|___|___| |___|___|___| |___|___|___| |___|___|___|
| | | | | | | | | | | | | | | |
/ / / / / / / / / / / / / / / /

====---0-----------5---7--------5--------3----------------0----------------|
-----------7---8-----------8--------7--------0---2---3--------2---3--------|
------------------------------------------------------------------------0----|
--------0--------------------------------------------------------------------| 16
-----------------------------------------------------------------------------|
-----------------------------------------------------------------------------|

__________ __________ __________ __________
|___|___|___| |___|___|___| |___|___|___| |___|___|___|
| | | | | | | | | | | | | | | |
/ / / / / / / / / / / / / / / /

--------3---5---3---2-------3---2---5---3---0------------------------0-----|
-------------------------5-----------------------3--------0---3---2---------|
--------4--------------------------------4-----------4----------------------|
-----------------------------------------------------------------------------| 17
-----------------------------------------------------------------------------|
-----------------------------------------------------------------------------|

__________ __________ __________ __________
|___|___|___| |___|___|___| |___|___|___| |___|___|___|
| | | | | | | | | | | | | | | |
/ / / / / / / / / / / / / / / /

------------0---2---3---5---2---3--------2--------------------------------|
--------3----------------------------5------------0---1---3----------------|
----------------------------------------------0----------------2---3-------|
-----------------------------------------------------------------------5----| 18
----------------------------------------------------------------------------|
----------------------------------------------------------------------------|

__________ __________ __________ __________
|___|___|___| |___|___|___| |___|___|___| |___|___|___|
| | | | | | | | | | | | | | | |
/ / / / / / / / / / / / / / / /

----------------0---2---3---0------------0-----------------------------------|
------------3--------------------7-----------7---8---10---12------10--------|
--------2-------3-------2-----------5------------7-------------10------9----|
---------------------------------5-------------------------10-------8--------| 19
------------------------------------------8----------------------------------|
-----------------------------------------------------------------------------|

__________ __________ __________ ______________
|___|___|___| |___|___|___| |___|___|___| |___|___| |___|
| | | | | | | | | | | | |___| | | |
/ / / / / / / / / / / / / / / / /

--------------7---9---10--7---9-------10------5--------2===3---2---0-------|
------8--10--8--------7----------10---7---------------------------------3---|
-------------------------------7---------------------------------------------|
------7------------------------------------0--------3------------2---3---0--| 20
------------------------------------------------7----------------------------|
-----------------------------------------------------------------------------|

__________ __________ __________ __________
|___|___|___| |___|___|___| |___|___|___| | |___|___|
| | | | | | | | | | | | | | | |
/ / / / / / / / / / / / / / / / 0 ----
rit.
----------------------------------------------------------------------|------------|
-3--------0-----------0-------1--------2---3-----------3-------------|-----3-----|
------3-------0-----------0--------2----------------0-----------4----|------------|
-2----------------3----------------3---0---2---3---0------3----------|-----2-----| 21
----------3-------5---------------------------------------------------|-----3------|
-----------------------------------------------------------5----------|------------|

Copyrights
Author: ?
Composer: ?
Publisher: ?

Reactions

CommonCrawl [Bot]

Follow Muzikum