Johann Sebastian Bach
Violin Concerto In E BWV 1042 (Guitar tab)

Date: Tue, 12 May 1998 16:14:28 -0400 (EDT)
From: Paul Harvey Dearhouse
Subject: b/bach_johann_sebastian/violin_concerto_in_E_BWV_1042.tab

J.S. Bach, Allegro- Violin Concerto in E, BWV 1042

transcribed by Paul Dearhouse- dearhous@uclink4.berkeley.edu

This piece sounds nice on the guitar and the notes fall in
good places on the neck(i.e. the music is well-suited for
guitar). The piece should "ring a bell" in your head.

I wrote just the introduction to this movement, the first 11 bars.
I included the first violin and cello, since their interplay is the
most interesting to me.

I wrote the time signature in between the violin and cello tab.
The piece is in 4/4 time and I wrote "-" symbols on the 8th notes
in between the quarter notes. Much of the piece uses 16th notes,
which is obvious(hopefully) from first glance. In only 1 or 2 places
do 32nd notes appear briefly.

Please feel free to email me with any further comments, corrections,
or suggestions. I know much more of this piece, but just haven't taken
the time to write it out. I will also be taking some time to write out
excerpts from Bach's other 2 concertos, in A minor and D minor, so
hopefully I can submit those real soon now. Well, good luck and have fun.


Allegro - BWV 1042, J.S. Bach, Violin Concerto in E Major.


violin 1
E------------------------|----------------------------|
B------------------------|----------------------------|
G------------------------|----------9-----------------|
D-------6-----9-------6-7|9--6-7-9------9--9-7-6------|
A--7---------------------|------------------------9-7-|
E------------------------|----------------------------|
| 1 2 3 4 - 1 - 2 - 3 - 4 -
|
| cello
E------------------------|-----------------------------|
B------------------------|-----------------------------|
G------------------------|-----------------------------|
D------------------------|----6------6------6----------|
A--7----------7----------|-7----9-7----9-7----9-7--6---|
E-------0-------------0--|-----------------------------|



E---------------------------------------------------|
B----------------------------------------7--9-10----|
G-------6-----------------------6--7--9-------------|
D-7--9-----7--6--7--9--6-----9----------------------|
A-------------------------9-------------------------|
E---------------------------------------------------|
| 1 - 2 - 3 - 4 -
|
|
E---------------------------------------------------|
B---------------------------------------------------|
G---------------------------------------------------|
D---------------------------------------------------|
A-------6-----7-------------------------------------|
E-9-----------------0-----7-------------------------|



E---------------------------------------------------|
B-12-12-12-12-12-12-12-12-12--9-----------------9---|
G-------------------------------10-----------10-----|
D----------------------------------11--9--11--------|
A---------------------------------------------------|
E---------------------------------------------------|
| 1 - 2 - 3 - 4 -
|
|
E---------------------------------------------------|
B---------------------------------------------------|
G---------------------------------------------------|
D-------------------4--6----------------------------|
A----------4--6--7--------4-------------------------|
E-4--5--7-------------------------------------------|

E---------------------------------------------------|
B-10-10-10-10-10-10-10-10-10-7----------------7-----|
G------------------------------8-----------8--------|
D---------------------------------9--7--9-----------|
A---------------------------------------------------|
E---------------------------------------------------|
| 1 - 2 - 3 - 4 -
|
|
E---------------------------------------------------|
B---------------------------------------------------|
G---------------------------------------------------|
D-------------------2--4----------------------------|
A----------2--4--6--------2-------------------------|
E-2--4--5-------------------------------------------|



E----------------------------7--9-----------7---|
B-9--9--9--9--9--9--9--9--10------10--9--10---9-|
G-----------------------------------------------|
D-----------------------------------------------|
A-----------------------------------------------|
E-----------------------------------------------|
| 1 - 2 - 3 - 4 -
|
|
E-----------------------------------------------|
B-----------------------------------------------|
G-------------------------------6-----------4---|
D----------------------2------------------------|
A-------------2--4--6-----4---------------------|
E-0--2--4--5------------------------------------|



E-------------------------------------------------|
B---7--9--10-7-----7--9-----------7---------------|
G---------------9--------9--8--9-----8-------6----|
D--------------------------------------7--9-----7-|
A-------------------------------------------------|
E-------------------------------------------------|
| 1 - 2 - 3 - 4 -
|
|
E-------------------------------------------------|
B-------------------------------------------------|
G---2---------------------------------------------|
D---------------------------------4----------2----|
A-------------------------------------------------|
E---------5-----------4-----2---------------------|



E-------------------------------------------------------|
B-------------------------------------------7--9-10-----|
G-------------------------------------------------------|
D----6--7-----------------------------------------------|
A-9--------9--6--7--9--6--------------------------------|
E-------------------------7-----------------------------|
| 1 - 2 - 3 - 4 -
|
|
E-------------------------------------------------------|
B-------------------------------------------------------|
G-------------------------------------------------------|
D-1--------------------------2--4--1--------1-----------|
A-------------------------------------2-----------------|
E-------------------------------------------------------|



tr.
E--------------------------------------------------|
B-9----7------9--7---------------------------------|
G---------9---------9--8--9-----------6--6--7--7---|
D------------------------------9--9----------------|
A--------------------------------------------------|
E--------------------------------------------------|
| 1 - 2 - 3 - 4 -
|
|
E--------------------------------------------------|
B--------------------------------------------------|
G--------------------------------------------------|
D-2------------------------------------------------|
A-------------------2-----4-----------------2--2---|
E------4------5----------------4--4---5--5---------|

E-----------------------------------|----------------------------|
B-------------------7-9----10-7-12--|-10-9-7----9-7--------------|
G-9-9-----6-6-7-7-9------9----------|---------9-------9-8-9------|
D-----9-9---------------------------|----------------------------|
A-----------------------------------|----------------------------|
E-----------------------------------|----------------------------|
| 1 - 2 - 3 - 4 - 1 - 2 - 3 4
|
|
E-----------------------------------|----------------------------|
B-----------------------------------|----------------------------|
G-----------------------------------|----------------------------|
D-------------------------------1-1-|-2--------------------------|
A-4-4---------2-2-4-4-2-2--4-4------|------4----0-----2----------|
E-----4-4-5-5-----------------------|---------------------0------|

Copyrights
Author: ?
Composer: ?
Publisher: ?
More details
Language: English

Reactions

CommonCrawl [Bot]

Follow Muzikum