Johann Sebastian Bach
Bvw 997 Prelude (Guitar tab)

#
BVW 997: PRELUDE, J.S.BACH
TRANSCRIBED BY: Kevin Manges (KevinM2556@aol.com)
Please let me know if this is readable. Use Courier "10" font to straighten
it up.
The fingering is what came easiest for me, not necessarily the correct one.
Let me know if there are any errors.

(2)
e:--------------4--5------5---|--------------4--5-----5--|
B:-----------5----------------|-----------5--------------|
G:---2-4--5-----------0-------|---2-4--5-----------------|
D:----------------------------|3-------------------2-----|
A:0---------------------------|--------------------------|
E:----------------------------|--------------------------|
1 3 4 4 3 4 4 2 1 3 4 4 3 4 1 4



(3) (4)
e:--------------4--5-----5--|---3--1--0----------------------------------|
B:-----------5--------------|------------3--1--0-----------0---------3---|
G:---2-4--5-----------------|---------------------2--1--2----------------|
D:0-------------------------|0--------------------------------3--2-------|
A:--------------------3-----|--------------------------------------------|
E:--------------------------|------------------------0-------------------|
1 3 4 4 3 4 2 1h



(5)
e:--------------------------0--------1--0--------|
B:1--0----------------0--1-----3--1--------3--1--|
G:------2-------1--2-----------------------------|
D:-----------------------3-----------------------|
A:0----------3-----------------------0-----------|
E:-----------------------------------------------|
1p 1p



(6)
e:---1----------------------1--0-----3--1--0-----|
B:3----------------0--1--3--------3-----------3--|
G:------0-------2--------0-----------------------|
D:-----------0-----------------------------------|
A:2----------------------------------2-----------|
E:-----------------------------------------------|



(7)
e:0-----0--3-----------3-----------3-----------1--|
B:---3--------0-----0-----1--0--1-----3--1--3-----|
G:---------------2--------------------0-----------|
D:------------3-----------2-----------------------|
A:3-----------------------------------------------|
E:------------------------------------------------|
3 4 4 3 2 1p 4p 3




(8)
e:0-----0-----0-----0--------------1-----0--------|
B:---3-----1-----0-----------------------------3--|
G:---------------------2--1-----1-----1-----1-----|
D:---------------------------4--------------------|
A:3-----------3-----------2-----------------------|
E:------------------------------------0-----------|
3 4 1



(9)
e:---------0--5--8---------------0--2--3--|
B:1--0--1--------------5--4---------------|
G:------------0---------------------------|
D:------------------4---------2-----------|
A:0---------------------------------------|
E:----------------------------------------|
1p 4 4 2 4 3 2 3 4



V
e:5-----------------0--2--------------------|
B:------0-----2--4-----------------1--0-----|
G:---5--------------------1--2-----------2--|
D:---------4-----------1--------------------|
A:6-----------------------------2-----------|
E:------------------------------------------|
1 1 2 1 3 3 1 2 2 1 3
2 1


(11)
e:------0-----0-----------------2--0--2-----------|
B:---0-----4-----0--1-----0--4-----------0--1-----|
G:0--------------------3-----------------------3--|
D:2-----------------------1-----------------------|
A:------------2-----------------------2-----------|
E:------------------------------------------------|
2 4 2 1 4 1 4 3 3 1 4
2


(12)
e:---0--3--2--3--------------2--5--------------|
B:0--------------0--1-----0-----------1--0-----|
G:---------------------3--------------------2--|
D:2-----------------------1--------------------|
A:------------2--------------------2-----------|
E:---------------------------------------------|
2 4p 3 4 0h 1 3 1 2s+2 2 1 3
2



(13) tr.
e:------0--2--3--2--0--------------------|
B:---0--------------------------0--1--3--|
G:0--------------------2--1--------------|
D:2--------------------------------------|
A:------3-----0--2--3--------2-----------|
E:---------------------------------------|
3 2 4 2 3 2 1 1 3
1


(14)
e:---------------------------------8--7--5--|
B:1-----------------0-----------------------|
G:------------0--2-----2--------------------|
D:---3--2-----------------2--1--------------|
A:0-----------------------------------------|
E:---------3-----------2--------7-----------|
1 3 2 3 2 4 3 1 3 4s 4 1
2


(15) (16)
e:3--5--7--0--3--2--0-----0--3-----------------|---------0--2--------0--------
|
B:---------------------4--------------2--0-----|0--2--4--------------------4--
|
G:------------------------------3--0--------2--|---------------2--0-----------
|
D:------------------------------2--------------|1-----4-----1-----2-----4-----
|
A:------------0-----2-----3--------------4-----|---------------2-----3--0--2--
|
E:0-----3--------------------------------------|------------------------------
|
1 3 4 3p 2 1 4 2 4 3 1 3 2 1 2 4 4 3 2 3 4 4
1 1 3 1 2 2


(17) (18)
e:---------------------------|---------------------------|
B:------------0--4--5-----5--|------------0--4--5-----5--|
G:---------------------------|---------------------------|
D:---2--4--5-----------0-----|---2--4--5-----------------|
A:---------------------------|3--------------------2-----|
E:0--------------------------|---------------------------|
1 3 2 3h 4 4 3 3h 4



(19) (20)
e:---------------------------|------------------------------------------|
B:------------0--4--5-----5--|---3--------------------------------------|
G:---------------------------|------5--4--2--------------------------2--|
D:---2--4--5-----------------|---------------5--4--2--1--2--4-----------|
A:0--------------------------|0-----------------------2--------3--2-----|
E:---------------------3-----|------------------------------------------|
3 2 4 3 1 4p 3 1 1 3 4 2 2 2
2



(21)
e:---------------------------------------------|
B:---------------------------------1--0--------|
G:---------------------0--2--4--0--------2--0--|
D:5--4--2-----1--2--4--------------------------|
A:---------------------3-----------------------|
E:0--------3-----------------------0-----------|
4s 4 1 3 1 2 4 3 1p



I.........
e:---------------------------1--0-----------------|
B:---1--------------0--1--3--------3--5--3--------|
G:2-----4--2--1--2--------------------------5--4--|
D:------------0-----------------------------------|
A:------------------------2-----------------------|
E:1-----------------------------------4-----------|
2 1 4 2 1 2 1 3 1p 4s 4 1 4 3
1 2 2


(23)
e:------------------------0--------1--0--------|
B:------------------0--1-----3--1--------3--1--|
G:5--4--2-----1--2-----------------------------|
D:---------------------3-----------------------|
A:0--------3-----------------------0-----------|
E:---------------------------------------------|
4s-4 1 3 1 2 1 4p 1 1p 4 1
3


(24)
e:---1--0-----------0--1--3--6--5--3--5--3--------|
B:3--------3--2--3--------------------------6--5--|
G:------------0-----------------------------------|
D:------------------------2-----------------------|
A:2-----------------------------------4-----------|
E:------------------------0-----------------------|
4 1p 4 2h 3 1s 1 4p 3 1 4p 1 4s 4
2 2


(25)
e:---------5-----------5-----------5-----------5--|
B:6--5--6-----2--0--2-----3--2--3-----5--3--5-----|
G:------------0-----------------------------------|
D:0-----------------------3-----------------------|
A:------------------------------------0-----------|
E:------------------------------------------------|
4p 3 4 3 1p 1 4 3p 1 3 4 2p 1 2 1
2



(26) I... II.. III.
e:1--0-----0--1-----1--------------5-----3-----1--|
B:------3--------3-----1--------------------------|
G:------------------------3--2--3-----3-----3-----|
D:0-----------0-----------5-----3-----2-----0-----|
A:------------------------------------------------|
E:------------------------------------------------|
1p 3 1 3 1 1 3 1 3 4 3 4 3 1
4 2 1


27III...................
e:---------------------------------3-----1-----0--|
B:5--3-----3--5-----5-----------------------------|
G:------5--------5-----3--2--0--2-----2-----2-----|
D:------------------------------2-----0-----------|
A:3-----------3-----------------------------3-----|
E:------------------------1-----------------------|
4p 1 4 1 4 4 4 1 2 2 4 2 1 2
1 1 1 1 3


I....
e:---------------------------------1-----0--------|
B:3--1-----1--3-----3--------------------------3--|
G:------3--------3-----2--0-----0-----0-----0-----|
D:---------------------------3--0-----------2-----|
A:1-----0-----------------------------4-----------|
E:------------3-----1-----0-----------------------|
4p 1 3 1 4 3 4 2 3 1 3 2 4
1 2 1


(29)
e:---------------------------------0-----------|
B:2--0-----------------------------------------|
G:------2-----------------3--2--0-----0--------|
D:------------2--3--5--------------------3--2--|
A:0--------0-----------4-----------4-----------|
E:---------------------0-----------------------|
2p 2 1h 2 4 3 2p 1 3 2p 1



(30)
e:------------------------------------0-----------|
B:------------3-----------------------------------|
G:---2--0--------------------3--2--0-----0--------|
D:3--------3-----3--2--0--------------------3--2--|
A:0-----------0-----------4-----------4-----------|
E:------------------------------------------------|
2 1p 0 2 3 2 1p 0 3 2p 1 4 2p 1




(31)
e:------------------------------------------------|
B:------------3-----------------------------------|
G:---2--0--------------------------------1--0-----|
D:3--------3-----3--2--0--1--3--1--0--1--------4--|
A:5-----------------------------------------0-----|
E:------------1-----------3-----------------------|
2 1p 0 2 4 3 2p 0 1h 4 1 4
4 1 3

tr.
(32) 010
e:------------------------------3--1--0-----|
B:---------------4--3--2--3--------------3--|
G:0--1--0-----0--------------2--------------|
D:---------4-----------------0--------------|
A:1-----------------------------0-----0-----|
E:------------------0-----1-----------------|
1h 2 4 4 3 2 4 2 4p 1 4



(33) II..III............
e:---1-----------------------5--6--|---0-----------------------4--5--|
B:3-----3--------------5--6--------|---------------------4--5--------|
G:---------2--3--------------------|------5-----2--------------------|
D:0-----------0-----0-----------0--|---------6-----------------------|
A:---------------4-----------------|3-----------3--2--3-----------3--|
E:---------------------------------|---------------------------------|
4 1 4 2 2 3 4s 4 3 4 1 3 4 2 2 3 2 3 2 5
3 3


(35)
e:---4--1--0--------------------------------------|
B:------------3--1--0-----------0--------3--1--0--|
G:---------------------2--1--2--------------------|
D:---------------------------------3--2-----------|
A:2-----------------------------------------------|
E:------------------------0-----------------------|
2 4 1 4 1 2 1h 2 3 2 4 1



(36)
e:---------0-----------0-----------0--------------|
B:1--0--1-----------------------------0-----0--3--|
G:------------1-----1-----2--1--2--------2--------|
D:------------0--4--------------------2-----------|
A:0-----------------------3-----------------------|
E:------------------------------------------------|
1p 1 1 4 1 2p 1 2 3 2
3



(37)
e:---------------------------------0--------------|
B:1--0-----0--1-----1--------------------3-----1--|
G:------2--------2-----0--------------------------|
D:------------------------3--2--3-----3-----3-----|
A:0-----------0-----------5-----3-----2-----0-----|
E:------------------------------------------------|
1p 2 2 1 3 3 4 1
4 2 2


(38)
e:------------------------------------------------|
B:0-----------0-----0--------------3-----1-----0--|
G:---2--0--2-----0--------------------------------|
D:---------------------3--2--0--2-----2-----2-----|
A:------------------------3-----2-----0-----------|
E:3-----------3-----------------------------3-----|
3 2 2 4 2 2 4 2 1 2
3 1 3


(39) II........
e:------------------------------------------------|
B:---------------------------------1-----0--------|
G:2--0-----0--2-----2--------------------------2--|
D:------3--------3-----2--1-----1-----1-----1-----|
A:------------5-----3-----2--4--0-----------2-----|
E:1-----0-----------------------------2-----------|
2 2 1 2 1 1 1 4 2 1 1 3
1 4 2 2 3 2


(40)
e:------------7-----------------------7-----------|
B:---6--5--------6--5--------6--5--------6--5-----|
G:---------7-----------7-----------7-----------7--|
D:6-----------------------6-----------------------|
A:------------------------------------------------|
E:0-----------0-----------0-----------------------|
2 3p 1 3 4 2p 1 3 2 3p 1 3 4 3p 1 3



I (41)
e:------------0-----------------------0-----------|
B:2-----------------------------------------------|
G:---3--2--0-----3--2--0-----3--2--0-----3--2--0--|
D:------------------------------------------------|
A:0-----------------------4-----------------------|
E:------------------------5-----------------------|
2 3p 1 3p 1 3 2p 1 2p 1
4



III............................................
e:------------5-----------------------5-----------|
B:---4--3--------4--3--------4--3--------4--3-----|
G:---------5-----------5-----------5-----------5--|
D:4-----------------------4-----------------------|
A:5-----------5-----------5-----------------------|
E:------------------------------------------------|
2 2p 1 4 4 2p 1 4 2 2p 1 4 4 2p 1 1
3 3


(43)
e:------------------------------------------------|
B:0-----------3-----------------------3-----------|
G:---1--0--------1--0--------1--0--------1--0-----|
D:---------3-----------3-----------3-----------3--|
A:------------------------2-----------------------|
E:3-----------3-----------3-----------------------|
3 1p 4 4 1p 4 2 1p 4 4 1p 4
3 3


(44)
e:------------3-----------------------3-----------|
B:---2--1--------2--1--------2--1--------2--1-----|
G:---------3-----------3-----------3-----------3--|
D:2-----------------------2-----------------------|
A:3-----------3-----------3-----------------------|
E:------------------------------------------------|
2 2p 1 4 4 2p 1 4 2 2p 1 4 4 2p 1 4
3 3 3


(45)
e:---------------1-----------------------|
B:---------2--3--------------------------|
G:2--0--2--------------2--1-----2--4--5--|
D:------------3--------------0-----------|
A:------------------2--------------------|
E:1--------------------------------------|
2 3 4 4 1 2 3 1s 1 3 4
1 3


(46)
e:------------------------------------------|
B:3-----------------------------------------|
G:---------------1--2--4--------------------|
D:---3--2-----4--------------------3--2--0--|
A:---------2--------------4--5--------------|
E:4--------------------0--------4-----------|
2 1s 1 2 4 1s 1 4 3 4 3 2 1
3



(47)
e:------------------------------------------------|
B:------------------------------------------------|
G:------2--1--2--------------1--4--2--4-----------|
D:---2-----------2--3--1--2--------------2--3--1--|
A:3-----------------------------------------------|
E:5-----------0-----------4-----------0-----------|
2 1 3 2h 4 1 2 1 4 2 4 2h 3 1
4 4


(48)
e:---------------------------------------1--0-----|
B:------1--0--1--------------0--3--------------3--|
G:---2--------------------------------------------|
D:2--------------2--3--1--2-----------------------|
A:0-----------------------------------------------|
E:------------0-----------4-----------0-----------|
2 3 4 1 2 3 1 2 3 1 3
4


(49) tr.
e:---0--5--7--8----7----5-----------0--1--3--|
B:1------------------------3-----------------|
G:----------------------------6--------------|
D:------3---------------3--------2-----------|
A:0-----------5----6-------------------------|
E:-------------------------------------------|
1 4 4 4 3 3 1 4 1 1 4
1 1 2 1


(50)
e:1-----------------0--------------1--0-----|
B:------------1--3-----3-----------------3--|
G:---3--2-----------------2--1--------------|
D:0-----------------------------------------|
A:---------3-----------2--------------------|
E:------------------------------0-----------|
1 3 2 3 1 4 4 3 1 1 3
2


(51)
e:---------------------------------------6--5--4--|
B:1--3--1--0--1--6--5--4--5--6--5--4--5-----------|
G:------------------------------------------------|
D:------------------------------------------0-----|
A:0-----------------2-----3-----------------------|
E:------------------------------------------------|
4 4 3 3 4 3 2 3 4 4 3
2 3



(52) VII... V (53)
VII
e:5--0--10--8--7---------7--8------8--7---------|------5----------------------
-|
B:----------------10--10-------10--------10--8--|7--8-----7--10--8----------10
-|
G:--------------------8-------------------------|5------------------11--9---8-
-|
D:----------------------------------------------|7--------------------------9-
-|
A:3--0---------7------9-------------------------|-----------------------------
-|
E:------0---------------------------------------|---------------------------7-
-|
4 4 2 1 4 4 1 2 4 2 1 4 2 3 4 1 3s 3 1 4 2 4
1 1 2 1 2
3 2 3
1
(54)
e:4--------------------------------------|
B:5-----------------------3--5--3--6--5--|
G:4-----------1--2--4--5-----------------|
D:0-----2--4-----2-----------------------|
A:---------------3-----------------------|
E:---------------------------------------|
2 2 4 1 1 4s 4 1 2 1 4 4
3 1
1 2

(55)
e:---------------------------5-----4--|5-----|
B:3-----------------------------0-----|5-----|
G:---5--4--2--1-----------------------|5-----|
D:2--------------3--2--0-----3--0--2--|7-----|
A:------------------------3-----------|0-----|
E:4-----------------------5-----------|------|
2 4s 4 1 1 3 2 1 4 4 1
1 3 1 1 1
3 1
3


I would like to TAB all of Bach's Lute Suites. So far this and the Sarabande
have been tabbed that I'm aware of. I will begin work on the Fugue tomorrow.
Does any feel ambitious?

THANKS TO OFIR ZWEBNER (ofirz1@ccsg.tau.ac.il) for writing TABMASTER.

We be jammin'.

Copyrights
Author: ?
Composer: ?
Publisher: ?
More details
Language: English

Reactions

CommonCrawl [Bot]

Follow Muzikum