Johann Sebastian Bach
Bwv 565 - Tocata & Fugue (Guitar tab)

J.S.Bach: Toccata and Fugue in d-minor
Excerpts from the piece arranged for guitar (solo, classical) by PD.


0/
/0 : means repeat previous figure

====================toccata===========================
...
6-5------------------
5--865----586~8-5-6--
6-----76-6--------7--
0-------7---------7--
4-----------------5--
---------------------

-------------15----1517--1517181517--15------------------------------
-151718151718--1718----18----------18--171815171415------------------
---------------------------------------------------1415--14----------
-------------------------------------------------------17--15171415--
-------------------------------------------------------------------17
---------------------------------------------------------------------

------------------------------------------------
------------------------------------------------
------------------------------------------------
-171415--14-------------------------------------
-------17--16171213--12----------10-------------
-------------------15--1315121310--12131012910--

----------------------5-------------------5---|--|
-----12-----10---8---5--------11---10---8-5---|--|
---11--11--9--9-7-7-6---------10----9---7-6---|0/|
-12------10----8---7-------12----7----8-------|/0|
----------------------------------------------|--|
---------------------------10----8----6---5---|--|

---------------------------------------------------------------131517(b)18
---------------------------------------------------15----141517-----------
-(14)----------------------------14------------1418--1416-----------------
-----171514----------------141517--17151415--15---------------------------
-----------17161416--151617----------------17-----------------------------
-------------------17-----------------------------------------------------

...

-------6--5---------------3---
------8----86565----------5---
----69----------7675------3---
-9-7----------------875---5---
-----------------------8754---
--------------------------3---

==============fugue===============

-5-5-5-5-5-5-5-5-5-5-5-5-5-5-5-5-5-
--8-6-5---------5-6-------------5--
----------7-6-7-------4-6-7-6-7----
--------------------7--------------
-----------------------------------
-----------------------------------

this part is not very guitar-friendly
---10--10--10--10--10--10--10--10--10--10--10--10--10--10--10--10-
-----13--11--10--------------10--11--------------------------10---
-10--11--12------12--11--12--------------9---11--12--11--12-------
-------------10--------------10--12--12---------------------------
-----------------13--12--13----------9---10--12--13--12--13--9----
------------------------------------------------------------------

-----10------10--|11----11----|----8-------8---|10---10---|6---6---|9---9-----
-11------11------|---8-----8--|10------10------|---6----6-|--8---8-|--5---5---
---12--12--12--12|--8--8--8--8|--10--10--10--10|--7-7--7-7|-9-9-9-9|-6-6-6--6-
---------12--12--|10-10-10-10-|10--10--10--10--|8--8-8--8-|8-8-8-8-|7-7-7-7---
-10--10----------|------------|----------------|----------|--------|----------
-----------------|------------|----------------|----------|--------|----------

-5---5---|--------|--------|---------
---6---6-|8---8---|6---6---|5---5----
--7-7-7-7|--6---6-|--7---7-|-0-0-0-0-
---------|-8-8-8-8|-7-7-7-7|--8---8--
-8-8-8-8-|7-7-7-7-|5-5-5-5-|7-7-7-7--
---------|--------|--------|---------

...

from here in solo-guitar style
-----------------------------------------------------------
--------------------------------------------------10-------
---10------9-------------------7--------------------1211...
-----131211---11--131210913--9--108710-7--10---------------
-10---------12-------------10---------9-----131213---------
----------------10------------8---------10-----------------

-17--------------|--|15--------------|--|
---181718--181718|--|--17151713171517|--|
---------17------|0/|----------------|0/|
-----------------|/0|----------------|/0|
-----------------|--|----------------|--|
-----------------|--|----------------|--|
...

-13151312--------|--------131713-------------------
---------151312--|------15------15-----------------
---------------14|161216--------------------14-----
-----------------|------------------------15--15---
-----------------|----------------14--1417------17-
-----------------|------------------15-------------

---------121512-------------------
-------13------13-----------------
-151215--------------------12-----
-------------------------14--14---
-----------------13--1315------15-
-------------------15-------------

-----------13--------------------|-------9129------------------|
-------1315--15------------------|-----11----11----------------|
-14--14--------15----------------|12912------------------------|
---15--------------------121512--|---------------------111411--|
-----------------12--1215------13|-------------10--1013------13|
-------------------13------------|---------------12------------|

------6----------|------10-----------|---|----696---------|
----58-85--------|---610--106--------|---|---8---8--------|
-6-6-------------|7-7-------------7--|0//|969----------6--|
--7----------585-|-7-------------7-7-|//0|-----------58-85|
---------4-47---7|-----------5058---8|---|--------747-----|
----------5------|-------------------|---|----------------|

---------101310------------|---|-------9129------------------|
---------------------------|---|-----11----11----------------|
-10--1014------14-----7107-|0//|12912------------------------|
---12----------------7----7|//0|---------------------111411--|
-----------------8--8------|---|-------------10--1013------13|
------------------10-------|---|---------------12------------|

-----------13----|----------------|----------|------------------------|--|
---------15--15--|----------------|----------|------------------------|--|
-14--1418------14|151915----------|-7--------|--------151412--12------|0/|
---15------------|------17151915--|8-8---7---|1211--11------15--151412|/0|
-----------------|--------------17|---108-8--|----14------------------|--|
-----------------|----------------|--------10|------------------------|--|

---------------1312-------------
---------121415----15...--------
-----1214-----------------------
-1415---------------------------
--------------------------------
--------------------------------

---151718--------------------------------------------------------|
-18------------15--151618--------------15--------------13--------|
---------141517--17----------1415141517--1412----121415--12------|
-------------------------1517----------------1513----------151312|
-----------------------------------------------------------------|
-----------------------------------------------------------------|

-----------------------------------------------------------------
-----------------------------------------------------------------
---121415--------------------------------------------------------
-15------------12--121315--------------12------------121312------
---------121315--15----------1213121315--151312--1315------151312
-------------------------1315------------------15----------------

----------------------------
----------------------------
-------11----------121415..-
---1214--1312----15---------
-15----------1513-----------
----------------------------

...

---------------------------------|------------------------------------------
---------------------------------|----------------------8--8----------------
---------------------------------|------7--7-979--109107-10-9------7--7-----
------------7--7------979--------|109107-10-9---10-----------109107-10-96-6-
-1081077--7--10-8878-----10108107|---------------------------------------9-7
--------10-8--------10-----------|------------------------------------------

---------------------------------------------5----
----------------------------------------------86...
--------------------------------------------------
-109107-----979-7--7-6-6-----------------5---75---
-------878-------10---8-7----532-75--875--875--8...
----------10---8----7----8754---5--87---8---------

|-5---------5-7-8-----------------5-9--------------------10---|
|---8-6-5-8---------1---2-------5-------2---3-------6/10------|
|-------------------0---2-----6---------2---2-----7-----------|
|-------------------2---2---7-----------2---3---7-------------|
|-------------------------------------------------------------|
|-------------------0---3---------------3---1-----------------|

|------------------7---------------------8-------------------5---|
|-3---0----------8-----0---1-----------8-----1---1---------6-----|
|-2---0--------7-------0---0---------9-------0---2-------5-------|
|-3---3------9---------3---2------10---------2---3-----7---------|
|---------10-------------------10--------------------8-----------|
|-1---1----------------1---0-----------------0---0---------------|

|-5---6-----------6---6---6-----------6---6---5---------2-5---|
|-6---6---------6-----6---5---------------5---3-------3-------|
|-5---7-------7-------7---6-----0---6-----6---5-----2---------|
|-----0-----8---------0-----------8---------------4-----------|
|-7-------8---------------4---7-----------4---3---------------|
|-------------------------------------------------------------|

|-5---5-------3-------3-------1-------0-------0-----------------------------|
|-3---3-------3-------5-------3-------3-------1-------3-------3-------------|
|-5---3-------3-------6-------2-------2-------2-------5-------3-------2-----|
|-----------------------------------------------------3-------5-------3-----|
|-3-------------------------------------------0-----------------------5-----|
|-----3-------6-------0-------1-------3---------------6-------3-------------|


arranged by PD.

Copyrights
Author: ?
Composer: ?
Publisher: ?
More details
Language: English

Reactions

CommonCrawl [Bot]

Follow Muzikum