Johann Sebastian Bach
Sarabande Violin Sonata In B Minor (Guitar tab)

From: "Tom Hines (PGP:0x28A635C6)"
Subject: b/bach_johann_sebastian/sarabande_violin_sonata_in_b_minor.tab

From: hines@sprintmail.com (Tom Hines)
Influences on the transcription are (Al DiMeola and Miguel Llobet).

This song appears on an Al DiMeola Album (Land of the Midnight Sun) as
Sarabande from Violin Sonata in B Minor.


Transcription notation:
h - hammer on
p - pull off
~ - vibrato


Sarabande (old Spanish dance of a grave character)
(Speed=3D3D72)
e||-2---------|----------|--------------|----------|------------| 3 =
B||-3--8-7-5--|-7-9-7-6--|---5-3p2-3p0--|----------|-0----------| T / =
G||----7-6----|-7--------|-4------------|-4--------|---2--------| A 4 =
D||-4----7----|-0--------|-5---2---3----|-5-7-5-4--|-4-2-5p4h5--| B =
A||-2--7-0----|----------|--------------|----------|-5-4-2------| =
E||-----------|----------|--------------|----------|------------|
Repeat 1 Repeat 2
e|--------|--------------|-2-------:|---2-------|:-6-6-6--|-----7-5-4----= |
B|-2-3-5--|-3-2-5-3------|-2-------:|---2-------|:--------|---7-------7--= |
G|-0------|---------6-4--|---------:|-----------|:-6-6-6--|-4------------= |
D|-----4--|-4---5--------|-4-------:|---4-------|:-4-2-4--|-0------------= |
A|-0------|-2------------|---7-5-4-:|-----------|:--------|--------------= |
E|-----6--|--------------|---------:|-----------|:--------|--------------= |

e|-0-2-4-|-5-3-2---|---8-7-----5-|-----------5-3-|-3-2-2-0-0---|-0-------= |
B|-0-2-3-|-2-----5-|-------5-4---|-1p0-1---0---0-|-1---0-----4-|---5-4-2-= |
G|-1-2---|---------|-8-----------|-------2-------|-2---0---2---|---------= |
D|-0---0-|-2-------|-7-----5-4---|-2-------1---2-|---------4---|-2-------= |
A|---4-2-|-0-------|-------------|---------------|-0---2---2---|---------= |
E|-------|---------|-------------|---------------|-------------|---------= |

e|-------------|-----0-2--|-7--------|-0--2--3-----|---------------------= |
B|-2-3p2--0----|-3--------|-0--8--7--|-2--3--5-----|------8--7--5--3--2--= |
G|-2------0-2--|----------|-------7--|-2--------6--|-4p3-----------------= |
D|-2-----------|-4-2---0--|-0--6-----|-------------|-2-------------------= |
A|-0-----------|----------|----7--5--|-0-----------|-4-------------------= |
E|-------------|----------|-3--------|-------------|-2-------------------= |

e|----------|-2-------------|-------------|----------|-------------4-----= |
B|-3--5--7--|-0--5--3--2-0--|-------------|-0--2--3--|-3-----------------= |
G|-------6--|-0-------------|-3-----------|----3--4--|-------4--7-----7--= |
D|-4-----4--|----------2----|-4--5--4--2--|-4--------|-2--6--------------= |
A|-2-----5--|---------------|-------------|-5--5--2--|-------------------= |
E|----------|-3-------------|-------------|----------|-------------------= |
~~
e|--------------0-|-0-------6----|-7--5-3--|------------|---------|----:|= |
B|--------------0-|-------5---5--|---------|---8-7-5-3--|---2-2-0-|-0--:|= |
G|-6p4h6--7p6h7---|-3-4-6--------|-7--6-4--|-3----------|---------|----:|= |
D|--------------2-|-4------------|-4-------|-2-------4--|-2---4---|-4--:|= |
A|-7------5-----4-|--------------|----7-5--|-4-------2--|---------|-2--:|= |
E|----------------|--------------|---------|------------|---------|----:|= |

Copyrights
Author: ?
Composer: ?
Publisher: ?
More details
Language: English

Reactions

CommonCrawl [Bot]

Follow Muzikum