Johann Sebastian Bach
Tocata Classical Guitar (Guitar tab)

Date: Tue, 7 Dec 1999 14:18:04 -0800 (PST)
From: Cristian "'S�crates'" Franco
Subject: b/bach_johann_sebastian/tocata_classical_guitar.tab

Tocata & Fugue
TOCATA (For classical guitar)
(J.S. BACH)


NOTE BY S�CRATES:

Tanscribed by S�crates.



I transcribed the tablature for acoustic guitar, the
worn techniques are very different to those of the
electric guitar, in fact this is a classical piece and
I thought appropriate transcribe it for classical
guitar.

As I said before the techniques are different, and I
thought that is indispensable write the fingering of
the two hands.

...With nothing else to say, hope that have fun;)

Legend:

^ = legato
! = strum with hand
/ = arpeggiated strum
\ with thumb
/
tr = trill
C = with index finger
C = with half index finger
... = similar


Fingering:
_____________________
|right hand: |
|i = index finger |
|m = middle finger |
|a = ring finger |
|p = thumb |
|left hand: |
|1 = index finger |
|2 = middle finger |
|3 = ring finger |
|4 = pinky |
���������������������


a a
i m i i m m i i
p m i m i m i p p p m i p p p p
E-|-17--15--17---3-1-0-----------5--3--5----0--1--------|
B-|--------------------3--2--3--------------------2--3--|
G-|-14---------------------------2----------------------|
D-|--------------------------0--------------2--3-----0--|
A-|-0---------------------4------0----------------4-----|
E-|-----------------------------------------------------|
3 2 3 3 1 3 1 2 4 2 4 1 1 2
1 3 1 2 3 3



m
p i m i... p...
E-|------------------------------------------/0^--------|
B-|--------------------------/3------------2-\2^--------|
G-|-2^0-2--------------------\2---------3----/3^--------|
D-|--------5--3--2-----------/0------5-------\5^--------|
A-|-0---------------5--4--5-------4----------/4^--------|
E-|-----------------------------------------------------|
1 1 4 2 1 4 3 4 2 3 4 2 1 1
1 2
4
3


p... i
E-|-^0------------------||-------|----------------------|
B-|-^2--/3--------------||-------|----------------------|
G-|-^3--\2--------------||-------|----------------------|
D-|-^5--/5--------2--4--||-------|----------------------|
A-|-^4------------------||---4---|----------------------|
E-|---------------------||-------|----------------------|
�C2____________
2
1
4 1 3 1


m i...
E-|-------------------------------------------------------------------|
B-|-------------------------------------------------------------------|
G-|----------------------------------------------------------------0--|
D-|-------------------------------2--3--5--2--3--5--2--3--5--2--3-----|
A-|-5--7--4--5--7--4--5--7--4--5--------------------------------------|
E-|-------------------------------------------------------------------|
2 4 1 2 4 1 2 4 1 2 1 2 4 1 2 4 1
2 4 1 2


m i... i
E-|-------------------------------------------------------------------|
B-|---------------------------------------------2---------------------|
G-|-2--3--0--2--3--0--2--3--0--2--------------------------------------|
D-|-------------------------------------------------------------------|
A-|-------------------------------------------------------------------|
E-|-------------------------------------------------------------------|
1 2 1 2 1 2 1 1


m i...
E-|----------------------------------------------------------------3--|
B-|-3--5--2--3--5--2--3--5--2--3--5--6--8--5--6--8--5--6--8--5--6-----|
G-|-------------------------------------------------------------------|
D-|-------------------------------------------------------------------|
A-|-------------------------------------------------------------------|
E-|-------------------------------------------------------------------|
2 4 1 2 4 1 2 4 1 2 1 2 4 1 2 4 1 2 4 1 2 1


m i...
i
E-|-5--6--3--5--6--3--5--6--3--5-----------------------------|
B-|----------------------------------------------------10----|
G-|----------------------------------------------------------|
D-|----------------------------------------------------------|
A-|----------------------------------------------------------|
E-|----------------------------------------------------------|
3 4 1 3 4 1 3 4 1 3 4


m a i...
E-|---6------6------5------5------3------3------1------1-----|
B-|-8------8------6------6------5------5------3------3-------|
G-|-----9------9------7------7------5------5------3------3---|
D-|----------------------------------------------------------|
A-|----------------------------------------------------------|
E-|----------------------------------------------------------|
2 1 3 2 1 3 2 1 3 2 1 3 4 1 3 4 1 3 4 1 3 4 1 3



m a i... i m p... p i p i m p
E-|---0------0-----------------------------------------------|
B-|-1------1--------3------3------1------1-------------------|
G-|-----2------2--3------3------2------2--------3------3-----|
D-|-------------------5------5------3------3--5------5-------|
A-|-----------------------------------------------7------7---|
E-|----------------------------------------------------------|
1 2 1 2 �C3_________ 2 1 3 2 1 3 2 1 4 2 1 4
1 1 3 1 1 3


m
i m p... p
E-|----------------------------------------------|
B-|-----------------------------3------/5^-------|
G-|---2------2------0------0-----------\3^-------|
D-|-3------3------2------2------0------/5^-------|
A-|-----5------5------4------4---------\4^-------|
E-|------------------------------------/0^-------|
2 1 4 2 1 4 1 3 1 3 3


i m...
E-|-----------------------------------------------------------------|
B-|-^5--------------------------------------------------------------|
G-|-^3^ ^3--2-0-------------------------tr..........--------------|
D-|-^5------------3-2-0--------------2-5--3----------------------2--|
A-|-^4------------------4-2-4--0--4---------------------------------|
E-|-^0--------------------------------------------------------------|
1 3 2 3 1 3 3 1 5 1(4) 1


i m p i p...
E-|-----------------------------------3--------|
B-|-----------3---5---6---3---5---6-------5----|
G-|-------2------------------------------------|
D-|-/3-----------------------------------------|
A-|-\5----------0---0---0---0---0---0---0---0--|
E-|-/5-----------------------------------------|
1 1 2 4 4 1 3 4 1 3
4
3


m p i p...
E-|-----3---5-------3---5---6---3---5-------3------------------------|
B-|-6-----------6-----------------------6-------5---6---3---5---2----|
G-|------------------------------------------------------------------|
D-|------------------------------------------------------------------|
A-|---0---0---0---0---0---0---0---0---0---0---0---0---0---0---0---0--|
E-|------------------------------------------------------------------|
4 1 3 4 1 3 4 1 3 4 1 3 4 1 3 1


m p i p...
E-|------------------------------------------------------------------|
B-|-3----------------------------------------------------------------|
G-|-----2---3---0---2-------0----------------------------------------|
D-|---------------------3-------2---3---0---2-------3---0---2--------|
A-|---0---0---0---0---0---0---0---0---0---0-----4-----0---0-----4----|
E-|-------------------------------------------5---5-----------5---5--|
2 1 2 1 2 1 2 2 4 3 4 2 1 4 3 4


m p i p...
E-|------------------------------------------------------------------|
B-|------------------------------------------------------------------|
G-|-----2---3---0---2-------0----------------------------------------|
D-|-0-------------------3-------2---3---0---2-------3---0---2--------|
A-|---0---0---0---0---0---0---0---0---0---0-----4-----0---0-----4----|
E-|-------------------------------------------5---5-----------5---5--|
1 2 1 2 1 2 1 4 3 4 2 1 4 3 4


p i m a m... p i m a p p p
E-|----------6--------5--------3----------5----!6-----!5----!3-------|
B-|--------6---6----5---5----3---3------5------!6-----!5----!3-------|
G-|------7--------5--------3----------2--------!7-----!6----!4-------|
D-|-0-------------------------------2--------0-!8-----!7----!5-------|
A-|--------------------------------------------!8---0-!7----!5-------|
E-|--------------------------------------------!6-----!5--6-!3-------|
2 1 1 1 �C5____ �C3____ �C2____ C6 C5 2 C3
1 1 1 1 1 1 1 1 1 1 4 4 1 1 1
1 1 1
2 2 2
4 4 4
3 3 3
1 1 1


i m a m... p i m a p p p
E-|----------6--------5--------3----------5-----!6----!5----!3-------|
B-|--------6---6----5---5----3---3------5-------!6----!5----!3-------|
G-|->2---7--------5--------3----------2---------!7----!6----!4-------|
D-|-4------------------------------------------!8--0-!7----!5-------|
E-|-

Copyrights
Author: ?
Composer: ?
Publisher: ?
More details
Language: English

Reactions

CommonCrawl [Bot]

Follow Muzikum