Team Sleep

Team Sleep
Breathless (Guitar tab)

From: "Person unknown"
Subject: t/team_sleep/breathless.tab
Date: Wed, 03 Jul 2002 17:14:13 +0000

Artist: Team Sleep
Tilte: Breathless
Album: ???
Tabbed By: Frank van der Walle (voorderotzooi@hotmail.com)



Riff 1

e----------------------------------------------
b----------------------------------------------
g-------------4-4-5-5--------------------------
d-9-9-9-9--5--5-5-5-5--10-10-9-9--13-13-12-12--
a-7-7-7-7--3--3-3-3-3--8--8--8-8--11-11-10-10--
d----------------------------------------------


Riff 2

e-----------------------
b-----------------------
g--------------4--------
d-9----5----3--3--6--5--
a-7----3----3--3--6--5--
d-----------3--3--6--5--


Riff 3

e--------------------------------------
b--------------------------------------
g--------------------------------------
d--------------------------------------
a-8-8-8-8-8-8-8-8--0-0--0-0--0-0--0-0--
d-8-8-8-8-8-8-8-8--0-0--0-0--0-0--0-0--


Riff 4 Riff 5

e---------- e------8-----------
b---------- b----8---8---------
g---------- g-----------10-----
d-5-5-5-5-- d-5-------------8--
a-3-3-3-3-- a------------------
d---------- d------------------


Riff 6 Riff 7

e--------------- e-----
b--------------- b-----
g--------------- g-----
d-9--5----9--5-- d-5~--
a-7--3----7--3-- a-3~--
d--------------- d-----


Riff 8

e----------------------------------
b----------------------------------
g----------------------------------
d-9-9-9-9-5-5-5-5-3-3-3-3-6-6-5-5--
a-7-7-7-7-3-3-3-3-3-3-3-3-6-6-5-5--
d-----------------3-3-3-3-6-6-5-5--


Riff 9
e-----------------------
b--------------6-6/8-8--
g---------5-5--x-x/x-x--
d-9-9-7-7-x-x--3-3/5-5--
a-7-7-7-7-3-3-----------
d-----7-7---------------


Riff 10 Riff 11

e------------------------- e------
b----------------6-6/8-8-- b------
g-----------5-5--x-x/x-x-- g------
d-9-9-14-14-x-x--3-3/5-5-- d-10~--
a-7-7-12-12-3-3----------- a-10~--
d------------------------- d-10~--

=========================================================

Riff 1 3x

Riff 2 4x

Riff 3 2x
Riff 4 2x

Riff 1 1x
Riff 2 4x

Riff 3 3x
Riff 7 2x

Riff 5 4x
Riff 6 2x

Riff 8 3x
Riff 9 4x
Riff 10 1x\
Riff 9 1x/ 2x
Riff 11 1x


That's it. If you have any suggestions, just mail me.

OptimusPrime

Submitted by OptimusPrime at Sat 31 Aug, 2002 9:26 am

Author: ?
Composer: ?
Publisher: ?
Language: English

Reactions

CommonCrawl [Bot]

Follow Muzikum