Wipers
D-7 (Bass tab)

Verse 1

G/--------------------------------------------------------------------------------
D/------------------------2-------------------------------------------------------
A/-------------2--------------------------3--5--3-------------------------------
E/-----0-----------------------------0-------------------------------------------

Repeat x 8, then...

Verse 2

G/------------------------2-------------------------------------------------------
D/-------------2--------------------------3--5--3-------------------------------
A/-----0-----------------------------0-------------------------------------------
E/--------------------------------------------------------------------------------

Repeat x2 then...

Repeat verse 1 x 6
verse 2 x 2
verse 1x 4
verse 2 x 2
verse 1 x 3 then....

G/---------------------------------------------------------------------------------
D/----------------------2----------------------------------------------------------
A/-------------2---------------------------3--5--3-------------------------------
E/------0-----------------------------0------------------------0(hold for 2 secs)

then...

Verse 3 at this point the song speeds up so fast fingers are needed
G/---------------------------------------------------------------------------------
D/---------------------------------------------------------------------------------
A/---------------------------------------------------------------------------------
E/----00000000-1-1---3-3--1----------------------------------------------

Repeat x 6 then...

Verse 4

G/------------------------------------------------------------------------------------
D/-------------------------------------------------------------------------------------
A/----00000000-1-1--3-3--1---------------------------------------------------
E/-------------------------------------------------------------------------------------

Repeat x 2 then...
Verse 3 x 4
Verse 4 x 2
Verse 3 x 4
Verse 4 x 2
Verse 3 x 4
Verse 4 x 2
Verse 3 x 4

  • Garth A.

    Submitted by

    Garth A. at Sat 19 Mar, 2005 6:45 pm

  • <
Copyrights
Author: ?
Composer: ?
Publisher: ?
More details
Language: English

Reactions

CommonCrawl [Bot]

Follow Muzikum