The Electric Soft Parade

The Electric Soft Parade
Empty At The End (Guitar tab)

Empty At The End Solo
Electric Soft Parade

This is a really wicked solo so I thought I would have a go at tabbing it,
this is my first attempt at tabbing, so please can you email me if you see any mistakes.
(christofski99@hotmail.com)

E-----------9-9-7----------------9-9-7--------------------------7---------------------
B------------------7-9------------------10-8------------8-8---8-------8-10----8------
G-9-9-9-9--------------7-9---9---------------9----7-9-------9-------9-------9-----7-9
D------------------------------------------------------------------------------------------
A------------------------------------------------------------------------------------------
E------------------------------------------------------------------------------------------

(Yeah, Yeah)

E-----9-9-7----------------9-9-7----------------------------7---------------------
B------------7-9-------------------10-8------------8-8---8-------8-10----8------
G-9----------------7-9---9---------------9----7-9------9-------9-------9-----7-9
D-------------------------------------------------------------------------------------
A------------------------------------------------------------------------------------
E-------------------------------------------------------------------------------------

I hope you enjoy playing it!! I'm sorry I didn't put in bends e.t.c but you can improvise.

Chris

OptimusPrime

Submitted by OptimusPrime at Sun 01 Dec, 2002 9:43 am

Author: ?
Composer: ?
Publisher: ?
Language: English

Reactions

CommonCrawl [Bot]

Follow Muzikum