F-Minus
Worth The Cost (Guitar tab)

Play it faster

verse
e|---------------------------------------------------------------|
B|---------------------------------------------------------------|
G|-----------------9-11-9-11---------------------------------------|
D|-11-11--9-11-11--9-11-9-11--------------------------------------|
A|-11-11--9-11-11--7-9--7-9---------------------------------------|
E|-9--9---9-9--9--------------------------------------------------|

chorus
e|-----------------------------------------------------------------|
B|-----------------------------------------------------------------|
G|-----------------------------------------------------------------|
D|-11-11-11--9-9-9------7-7-7-7-7-7---------------------------------|
A|-11-11-11--9-9-9------7-7-7-7-7-7--------------------------------|
E|-9--9--9---7-7-7--x3--5-5-5-5-5-5--------------------------------|


e|-----------4--x3------------7-----x3--------------12---x3-----------------|
B|-----------7b9--------------10b12-----------------15b17---------------------|
G|---------------------------------------------------------------------------|
D|-11-9-11-11-------11-9-11-11-----------11-9-11-11-----------------------------|
A|-11-9-11-11-------11-9-11-11-----------11-9-11-11--------------------------------|
E|-9--7-9--9-------9--7-9--9-------------9--7-9--9-------------------------|
last one followed by pick scrape

Copyrights
Author: ?
Composer: ?
Publisher: ?
More details
Language: English

Reactions

CommonCrawl [Bot]

Follow Muzikum