F-Minus
Were All Deadmen (Guitar tab)

verse
e|---------------------------------------------------------------------------|
B|---------------------------------------------------------------------------|
G|-9-9-7-9-9--7-7-7--12-11---------------------------------------------------------------|
D|-9-9-7-9-9--7-7-7--12-11---------------------------------------------------------------|
A|-7-7-7-7-7--5-5-5--10-9---------------------------------------------------------------|
E|---------------------------------------------------------------------------|

chorus
e|---------------------------------------------------------------------------|
B|---------------------------------------------------------------------------|
G|-9-----9------------7-7-7-------------------------------------------------------|
D|-9-9-9-9-9-9--7-7-7-7-7-7--------------------------------------------------------------|
A|-7-9-9-7-9-9--7-7-7-5-5-5---------------------------------------------------------------|
E|---7-7---7-7--5-5-5----------------------------------------------------------------|

Copyrights
Author: ?
Composer: ?
Publisher: ?

Reactions

CommonCrawl [Bot]

Follow Muzikum