F-Minus
Class Machine (Guitar tab)

-------------------------------------------------------------------------------
CLASS MACHINE - F-Minus
-------------------------------------------------------------------------------

By: dan kiely (dan13@fminus.com)

INTRO/VERSE
e|-------------------------------------|
B|-------------------------------------|
G|-------------------------------------|
D|--8-8-8---10-10-10-------------------|
A|--8-8-8---10-10-10-------------------|
E|--6-6-6---8--8--8--------------------|

CHORUS
e|-------------------------------------|
B|-------------------------------------|
G|----8-8-8-----6-6-6------------------|
D|--8-8-8-8---6-6-6-6------------------|
A|--8-6-6-6---6-4-4-4------------------|
E|--6---------4------------------------|

===============================================================================

Copyrights
Author: ?
Composer: ?
Publisher: ?

Reactions

CommonCrawl [Bot]

Follow Muzikum