Caliban

Caliban
Tyranny Of Small Misery (Guitar tab)

-------------------------------------------------------------------------------
TYRANNY OF SMALL MISERY - Caliban
-------------------------------------------------------------------------------

By:Johny and his blob

drop d

intro
guitar 1
e|-13-17-----|13-17---13-17-20-----------------------------------------------|
B|-------17--|-----17--------------------------------------------------------|
G|-----------|---------------------------------------------------------------|
D|-----------|---------------------------------------------------------------|
A|-----------|---------------------------------------------------------------|
E|-----------|---------------------------------------------------------------|

guit 2
e|---------------------------------------------------------------------------|
B|---------------------------------------------------------------------------|
G|----5----------------------------------------------------------------------|
D|-0--5--3-2-1---------------------------------------------------------------|
A|-0--3--3-2-1---------------------------------------------------------------|
E|-0--3--3-2-1---------------------------------------------------------------|

verse 1
e|---------------------------------------------------------------------------|
B|---------------------------------------------------------------------------|
G|---------------------------------------------------------------------------|
D|-----------------4-3-------------------------------------------------------|
A|-----5-6-5-4-5-6---------5-6-5-4-5-6-3h4p3(bunch of times)-----------------|
E|-0-0-----------------0-0---------------------------------------------------|
P.M P.M.
e|---------------------------------------------------------------------------|
B|---------------------------------------------------------------------------|
G|---------------------------------------------------------------------------|
D|-----------------4-3-----------------0-1-0-1-------------------------------|
A|-----5-6-5-4-5-6---------5-6-5-4-5-6-0-1-0-1-------------------------------|
E|-0-0-----------------0-0-------------0-1-0-1-------------------------------|
P.M. P.M.

chorus
guit 1
e|---------------------------------------------------------------------------|
B|---------------------------------------------------------------------------|
G|---------------------------------------------------------------------------|
D|---------------------------------------------------------------------------|
A|---------------------------------------------------------------------------|
E|--222222222222222222222222-------------------------------------------------|
fast picking....

guit 2
e|---------------------------------------------------------------------------|
B|---------------------------------------------------------------------------|
G|---------------------------------------------------------------------------|
D|-7-5-2-3-------------------------------------------------------------------|
A|-5-3-0-1-------------------------------------------------------------------|
E|---------------------------------------------------------------------------|

after...
e|-------------------------|-------------------------------------------------|
B|-------------------------|-------------------------------------------------|
G|---(3 times then...)-----|-------------------------------------------------|
D|-0--0--0--0--0--0h1------|-0-1-3-0-4-3-1-3---------------------------------|
A|-0--0--0--0--0--0h1------|-0-1-3-0-4-3-1-3---------------------------------|
E|-0--0--0--0--0--0h1------|-0-1-3-0-4-3-1-3---------------------------------|
pm pm pm

e|--------------------|------------------------------------------------------|
B|--------------------|------------------------------------------------------|
G|(3 other times...)--|------------------------------------------------------|
D|-0--0--0--0--0--0h1-|-0-1--------------------------------------------------|
A|-0--0--0--0--0--0h1-|-0-1--------------------------------------------------|
E|-0--0--0--0--0--0h1-|-0-1--------------------------------------------------|
pm pm pm P.M.

back to chorus...

then....
e|---------------------------------------------------------------------------|
B|---------------------------------------------------------------------------|
G|---------------------------------------------------------------------------|
D|-----------------------------------------5---------------------------------|
A|-0*-0*-5-7-8-7-5-7-8-----0*-0*-5-7-8-7-5---8-------------------------------|
E|---------------------------------------------------------------------------|
(the 0* change in this riff but i didn't figure it out...)
e|---------------------------------------------------------------------------|
B|---------------------------------------------------------------------------|
G|---------------------------------------------------------------------------|
D|---------------------------------------------5-----------------------------|
A|-0*-0*-5-7-8-7-5-7-8----0*-0*-5-7-8--0*-0*-5---8---------------------------|
E|---------------------------------------------------------------------------|

done yet!
any corrections-->killaz_alfred@hotmail.com
===============================================================================

OptimusPrime

Submitted by OptimusPrime at Mon 11 Feb, 2002 1:07 am

Author: ?
Composer: ?
Publisher: ?
Language: English

Reactions

CommonCrawl [Bot]

Follow Muzikum