98 Mute
A (Bass tab)

A.C.A.B
98 Mute
Tabbed by: Danzig_Fiend@hotmail.com

G|---------------------------------------------------------------------|
D|---------------------------------------------------------------------|
A|--------------888--66--555----------------666--55--333---------------|
E|-6666666---------------------3333333---------------------------------|

G|---------------------------------------------------------------------|
D|---------------------------------------------------------------------|
A|-------------------8888888888888888-----------------6666666666666666-|
E|-6666666666666666------------------3333333333333333------------------|

G|---------------------------------------------------------------------|
D|---------------------------------------------------------------------|
A|------88--------6-5-6------------------------------------------------|
E|-66-------33---------------------------------------------------------|

G|---------------------------------------------------------------------|
D|---------------------------------------------------------------------|
A|------------88888888--------------666-5-6----------------------------|
E|-66666666--------------33333333--------------------------------------|

Copyrights
Author: ?
Composer: ?
Publisher: ?

Reactions

CommonCrawl [Bot]

Follow Muzikum