Zao

Zao
My Song Ver 2 (Guitar tab)

Guitar1
---------------------------------------------------------------------------------------|
---------------------------------------------------------------------------------------|
---------------------------------------------------------------------------------------
---10�8�8---7�5�7�8�7�5�7�8�7�5�7�8�7--------------
---------------------------------------------------------------------------------------
---------------------------------------------------------------------------------------
guitar2
-----------------------------------------------
-----------------------------------------------
-----------------------------------------------
--0#-0#-0#-0#-0#-0#-0#�0�1�0-----
--0#-0#-0#-0#-0#-0#-0#-0-1-0---------
--0#-0#-0#-0#-0#-0#-0#-0-1-0---------
guitar2
----------------------------------------------
----------------------------------------------
----------------------------------------------
--0#-0# 0# 0#--1�--1#-1#-1#-1#-0-----x3
--0#-0# 0# 0#--1---1#-1#-1#-1#-0-----
--0#-0# 0# 0#--1---1#-1#-1#-1#-0-----
guitar1
----------------------------
----------------------------
----7----------------------
--0-7--6-1---------------
--0-5--6-1---------------
--0----6-1----------------
guitar1(playing with guitar 2)
--------------------------------------
--------------------------------------
--------------------------------------x1
--0�7�6�2�5�2�3�0---
--------------------------------------
---------------------------------------
then this
-----------------------------------------
------------------------------------------
------------------------------------------
--0#---0#-0#-0#---0#---0#-0#-0#---x1
--0#---0#-0#-0#---0#---0#-0#-0#---
--0#---0#-0#-0#---0#---0#-0#-0#---




guitar1
-----------------------------
-----------------------------
----7--6--2--5--2--3--0--
-0--------------------------
-----------------------------
-----------------------------
guitar2
-------------------------------------------
-------------------------------------------
--------------------------------------------
--0#---0#-0#-0#---0#---0#-0#-0#----
--0#---0#-0#-0#---0#---0#-0#-0#-----
--0#---0#-0#-0#---0#---0#-0#-0#-----
guitar1
---------------------------------------
---------------------------------------
---------------------------------------x4
--0�7�6�2�5�2�3�0----
---------------------------------------
---------------------------------------
guitar2
--------------------------------------------
--------------------------------------------
--------------------------------------------
--0#---0#-0#-0#---0#---0#-0#-0#-----x2
--0#---0#-0#-0#---0#---0#-0#-0#-----
--0#---0#-0#-0#---0#---0#-0#-0#-----
guitar2
------------------------------------------
------------------------------------------
------------------------------------------
--0#---0#-0#-0#---0#---0#-0#-0#---x2
--0#---0#-0#-0#---0#---0#-0#-0#---
--0#---0#-0#-0#---0#---0#-0#-0#---
guitar1
--------------------------------------
--------------------------------------
--------------------------------------
--0�7�6�2�5�2�3�0---x8
--------------------------------------
--------------------------------------

guitar2
---------------------------------------
---------------------------------------
------------------3------3------
--0#-0#-7---0#-0#-3--3-2-3-0---x4
--0#-0#-7---0#-0#-1--3-2-1-0---
--0#-0#-7---0#-0#----3-2---0---
then this (guitar1)
------------------
------------------
----7-----------
--0-7�6�1---x6
--0-5-6-1---
--0---6-1---
guitar1
------------------------------------------
------------------------------------------
-----7------------------------------------
--0- 7�6�1---7-7-7-7-7-7-7-7-7--x1
--0- 5-6-1--------------------------
--0----6-1---------------------------
guitar1(really fast)
-------------------------------------------------
------------------------------------------------
---------------------------------------------------
-12�10�8�7�5�7�8�7�10�8--
--------------------------------------------------
--------------------------------------------------
guitar2 (with guitar1)
-------------------------------------------
-------------------------------------------
-------------------------------------------
--0#---0#-0#-0#---0#---0#-0#-0#----
--0#---0#-0#-0#---0#---0#-0#-0#----
--0#---0#-0#-0#---0#---0#-0#-0#----
that�s it, this is a awesome song

OptimusPrime

Submitted by OptimusPrime at Fri 06 Feb, 2004 5:26 am

Author: ?
Composer: ?
Publisher: ?
Language: English

Reactions

CommonCrawl [Bot]

Follow Muzikum