Zao

Zao
To Think Of You Is To Treasure An Absent (Bass tab)

To Think of you is to treasure an absent memory
Zao
Tabbed by: Danzig_Fiend@hotmail.com
Tunning: CGCF

I ***in LOVE this song, It kicks so much ass its not even funny

Intro: (2x)
G|----|
D|----|
A|-5--|
E|----|

Then: (12x)
G|------------------|
D|------------------|
A|-5-55-5--55-55-5--|
E|------------------|

(4x)
G|-----------|
D|-----------|
A|-5-5-5-5-5-|
E|-----------|

Verse: (4x) ("Dark clouds Decended")
G|------------------|
D|------------------|
A|--7~--------------|
E|-------5~-----0~--|

(8x)
G|---------------------------------|
D|---------------------------------|
A|---------------------------------|
E|-0-0-0-0-0-0-0-0-0-0-0-0-0-0-0-0-|

G|-----------------|
D|-----------------|
A|-----------------|
E|--0~------0~-----|

G|---------------------| \
D|---------------------| \
A|---------------------| \
E|-0-0-0-0-0-0--0-0-0--| \
/ 6x
G|-------------------------| /
D|-------------------------| /
A|-------------------------| /
E|-0-0-0-0-0-0--0-3-0-3-0--|

(4x)
G|-----------|
D|-----------|
A|--5--3--8--|
E|-----------|

(4x) "...Where blood and Fire bring...."
G|----------------------------------------------------------------------|
D|----------------------------------------------------------------------|
A|--77777777-88888888-12-12-12-12-12-12-12-12--10-10-10-10-10-10-10-10--|
E|----------------------------------------------------------------------|

G|-------|
D|-------|
A|-------|
E|--0-0--|

G|---------------------------|
D|---------------------------|
A|---------------------------|
E|-0-0-0-0--0-0-0-0--00-0-0--| repeat alot

OptimusPrime

Submitted by OptimusPrime at Thu 14 Aug, 2003 7:44 pm

Author: ?
Composer: ?
Publisher: ?
Language: English

Reactions

CommonCrawl [Bot]

Follow Muzikum