Zao

Zao
For A Fair Desire (Bass tab)

For a fair desire
Zao
Tabbed by: XovermydeadbodyX@hotmail.com

Drop C tuning

G|--------------------|------|--------------|
D|--------------------|(11x)-|--------------|
A|--------------------|------|--------------|
E|-2222-22-2-2-22222--|------|-2222-22-2-2--|

G|-----------------------------|
D|-----------------------------|
A|-----------------------------|
E|-7--4----5-5--7-7--5-5--4-4--|

G|-----------------------------------------|
D|-----------------------------------------|
A|-----------------------------------------|
E|-7--9--7--5--4--4----5-5--7-7--5-5--4-4--|

G|-------------------------------|
D|-------------------------------|
A|-------------------------------|
E|-2-2--2-2--2-2--2-2--22222222--|

G|------|
D|------| (8x)
A|------|
E|-2-2--|

G|--------------------------------|
D|--------------------------------|
A|--------------------------------|
E|-22222-22222--2-2--2-2--22222---|

G|-----------------------|
D|-----------------------| (4x)
A|-----------------------|
E|-2-2-2--2-2--2-2--222--|

G|-----|
D|-----| (4x)
A|-----|
E|-2~~-|

G|---------------------------|
D|---------------------------| (2x)
A|---------------------------|
E|-22222--2-2--2-2222--2-2---|

G|---------------------|
D|---------------------|
A|---------------------|
E|-2~----2~----2222----|

OptimusPrime

Submitted by OptimusPrime at Thu 14 Aug, 2003 7:44 pm

Author: ?
Composer: ?
Publisher: ?
Language: English

Reactions

CommonCrawl [Bot]

Follow Muzikum