Zao

Zao
Five Year Winter (Bass tab)

Verse: (8x) ("Dear Tiffany, you've made me...")
G|-------------|
D|-------------|
A|-------------|
E|-3-1-0-3-0-0-|

Bridge: (5x) ("Spike..")
G|-------------------|
D|-------------------|
A|-------------------|
E|-0-0-0-0--0-0-0-0--|

G|-----------------|
D|-----------------|
A|-----------------|
E|-0-0-0--3-1-0-3--|

Verse: (8x)
G|-------------|
D|-------------|
A|-------------|
E|-3-1-0-3-0-0-|

Bridge: (5x)
G|-------------------|
D|-------------------|
A|-------------------|
E|-0-0-0-0--0-0-0-0--|

G|-----------------|
D|-----------------|
A|-----------------|
E|-0-0-0--3-1-0-3--|

Breakdown:
G|------------------------------|
D|------------------------------|
A|------------------------------|
E|-0-0-0-0-0-0-0-0-0-0-0--Alot--|

End: ("Burn it down and walk away")
G|------|
D|------|
A|------|
E|-0-0--|
thanks for rreading my tab
tabbed by skitzo

OptimusPrime

Submitted by OptimusPrime at Thu 14 Aug, 2003 7:44 pm

Author: ?
Composer: ?
Publisher: ?
Language: English

Reactions

CommonCrawl [Bot]

Follow Muzikum