Zao

Zao
Endure (Guitar tab)

Song: Endure
Artist: Zao
Album: Splinter Shards the Birth of Seperation

Dropped D tuning
Tabbed by Brian Burnett

INTRO x8
B|------10--------10--------11---------11---|-----10--------10-------11----8----8-|
G|----9-----9---9----9---10----10---10----10|---9----9----9----9---10---7------7--|
D|-7----------7--------8----------8---------|-7---------7--------8--------5---5---|

VERSE/ALTERNATE
D|--7-7-7-7---8-8-8-8---5-5-5-5--8-10-8-10-|
A|--7-7-7-7---8-8-8-8---5-5-5-5--8-10-8-10-|
D|--7-7-7-7�--8-8-8-8---5-5-5-5--8-10-8-10-|

D|--7-7-7---7---8-8-8---8---8-8--8---5-5-5---5---8-8-10---10-10--10-|
A|--7-7-7---7---8-8-8---8---8-8--8---5-5-5---5---8-8-10---10-10--10-|
D|--7-7-7---7---8-8-8---8---8-8--8---5-5-5---5---8-8-10---10-10--10-|

SOLO
G|-10-9---12-10-| (*each note is picked multiple times)

Note: you need to listen to the song to get the changeups and picking patterns;
there are tons of variations of the verse throughout the song. This is a really easy
but cool song to play cause there�s so much energy. Have fun playing it.

OptimusPrime

Submitted by OptimusPrime at Sun 01 Dec, 2002 5:22 pm

Author: ?
Composer: ?
Publisher: ?
Language: English

Reactions

CommonCrawl [Bot]

Follow Muzikum