Zao

Zao
Fall Farewell (Guitar tab)

Song: Fall Farewell
Artist:Zao
Album:Where Blood and Fire Bring Rest

This is in Drop C tuning (CGCFAD).


"In these times of quitness, I reflect....."
D|---------------------------------------------------------------|
A|---------------------------------------------------------------|
F|---------------------------------------------------------------|
C|---------------------------------------------------------------|
G|--0--0-0-0--0-6-6-6-6-6-5-3h5----0-0-0-0--0---6-5-5-8-8-8-8-8--|
C|--0--0-0-0--0--------------------0-0-0-0--0--------------------|


D|------------------------------------------|
A|------------------------------------------|
F|---8-8-8-7--8-8-8-7-----------------------|
C|----------------------8-8-8-7--8-8-8-7----|
G|---6-6-6-5--6-6-6-5---6-6-6-5--6-6-6-5----|
C|------------------------------------------|
This is the part where he's not singing....


Right before it goes into this
next riff another guitar plays this:
D|-----------------------------|
A|-----------------------------|
F|-----------------------------|
C|-----------------------------|
G|-----------------------------|
C|--0-0-0-0-0-0-0--5^-5^-5^-5^-|

".....and those words where possibly the last.."
D|------------------------------------------|
A|------------------------------------------|
F|---------------------------------5-5-5-5--|
C|------------------------------------------|
G|-------5b---------5b--------5b---3-3-3-3--|
C|-0-0-0-----0-0-0------0-0-0---------------|
Play this riff the first time.


Then this:
D|------------------------------------------|
A|------------------------------------------|
F|---------------------------------5-5-5-5--|
C|-------7b---------7b--------7b------------|
G|-------5b---------5b--------5b---3-3-3-3--|
C|-0-0-0-----0-0-0------0-0-0---------------|

"...as a dreaming child, I awaken to a nightmare..."
D|----------------------------------------------------------------|
A|----------------------------------------------------------------|
F|----------------------------------------------------------------|
C|-----------6-5------------6-5----------6-5----------6-5---------|
G|-0-1-2-1--------0-1-2-1-------0-1-2-1-------0-1-2-1----0-1-2----|
C|-0-1-2-1--------0-1-2-1-------0-1-2-1-------0-1-2-1----0-1-2-0--|
That last note is held for a while then....


Whispering "The machines that kept you alive, etc"
D|------------------------|
A|------------------------|
F|------------------------|
C|------------------------|
G|------------------------|
C|--0-0-0-5b-0-0-0--5-6b--|


D|-------------------------------|
A|-------------------------------|
F|-------------------------------|
C|-------------------------------|
G|-------------------5ph--3ph----|
C|--0-0-0-5b-0-0-0---------------|
Last 2 note are pinch harmonics.


Then screaming "The machines that kept you alive, etc"
D|------------------------|
A|------------------------|
F|------------------------|
C|------------------------|
G|--0-0-0-5b-0-0-0--5-6b--|
C|--0-0-0-5b-0-0-0--5-6b--|


D|--------------------------------------------------------------|
A|--------------------------------------------------------------|
F|--------------------------------------------------------------|
C|--------------------------------------------------------------|
G|--0--0-0-0--0-6-6-6-6-6-5-3h5----0-0-0-0--0---6-5-5-8-8-8-8-8-|
C|--0--0-0-0--0--------------------0-0-0-0--0-------------------|


D|----------------------------------------------------------------------|
A|----------------------------------------------------------------------|
F|----------------------------------------------------------------------|
C|--------------8-8-8-8-8-7-7-7-----------------8--7--7-10-10-10-10-10--|
G|--0--0-0-0--0-6-6-6-6-6-5-5-5----0-0-0-0--0---6--5--5-8--8--8--8--8---|
C|--0--0-0-0--0--------------------0-0-0-0--0---------------------------|

The end:
D|--------------------------------|
A|--------------------------------|
F|--4--5---4---5---4---5---4---5--|
C|--------------------------------|
G|--2--3---2---3---2---3---2---3--|
C|--------------------------------|

D|--------------------------------|
A|--------------------------------|
F|--4--5---4---5---4---5---4---5--|
C|--------------------------------|
G|--2--3---2---3---2---3---2---3--|
C|--------------------------------|

"...You brought the silence.."

D|--------------|
A|--------------|
F|--------------|
C|--------------|
G|--------------|
C|-0------------|

End by plucking the low C open.

Key:
ph=pinch harmonic
^=harmonic
p=pulloff
h=hammer
*=palm mute
/=slide up
\=slide down

OptimusPrime

Submitted by OptimusPrime at Sun 01 Dec, 2002 5:22 pm

Author: ?
Composer: ?
Publisher: ?
Language: English

Reactions

CommonCrawl [Bot]

Follow Muzikum