Zao

Zao
Ember (Guitar tab)

Artist: Zao
Song: Ember
Album: Where Blood and Fire Bring Rest

Dropped D Tuning

riff-1
D-------------------------|
A--5^6--5^6--5-5-5--------|
D--0-----0----0-0-0-------|

riff-2
B--------3------|
G--------5------|
D---------------|
A--0------------|
D--0------------|

riff-3
D-----------------------------------|
A--0-000-1-111-3-333-3-5------------|
D--0-000-1-111-3-333-3-5------------|

riff-4
D--7-----10--12--|
A--5--7---8--10--|
D-----7----------|

D--7--9--10--12--|
A--5--7---8--10--|
D----------------|

then there's some variations on riff-3

OptimusPrime

Submitted by OptimusPrime at Sun 01 Dec, 2002 5:22 pm

Author: ?
Composer: ?
Publisher: ?
Language: English

Reactions

CommonCrawl [Bot]

Follow Muzikum