Zao

Zao
Autopsy (Guitar tab)

Song: Autopsy
Artist: Zao
Album: Liberate Te Ex Inferis

Dropped C Tuning

Intro:
Guitar 1:
E---------------------------------|
B---------------------------------|
G---------------------------------|
D-5-5-5--5-5-5--1-1-1--1-1-1------|
A-5-5-5--5-5-5--1-1-1--1-1-1------|
E-5-5-5--5-5-5--1-1-1--1-1-1------|

Guitar 2:
E------------------------------------|
B------------------------------------|
G-7-7-7--8-8-8--7-7-7--8-8-8---------|
D------------------------------------|
A-5-5-5--5-5-5--5-5-5--5-5-5---------|
E------------------------------------|

Verse:
Guitar 1 plays the same thing
Guitar 2:
E-------------------------------------|
B-------------------------------------|
G-7-7--8--7--3---7-7--8--10-10--------|
D-------------------------------------|
A-5-5--6--5--1---5-5--6---8--8--------|
E-------------------------------------|

Guitar 3: (Hidden deep underneath all the other guitars)
E----------------------------------------------------------------------|
B----------------------------------------------------------------------|
G-7-7-7-7-7-7--3-3-3-3-3-3--7-7-7-7-7-7--3-3-3-3/15-15-----------------|
D----------------------------------------------------------------------|
A-5-5-5-5-5-5--1-1-1-1-1-1--5-5-5-5-5-5--1-1-1-1/13-13-----------------|
E----------------------------------------------------------------------|

Guitar 4: (Fill; played 4 times i think)
E--------------------|
B--------------------|
G-/15--/17--/19------|
D--------------------|
A-/13--/15--/17------|
E--------------------|

Chorus: (Guitars 1 & 2, but Guitar one solos one time through)
E-------------------------------------|
B-------------------------------------|
G-------------------------------------|
D-0-0--/5-5-5-5--1-1--/6-6-6-6--------|
A-0-0--/5-5-5-5--1-1--/6-6-6-6--------|
E-0-0--/5-5-5-5--1-1--/6-6-6-6--------|

Guitar 3:
E-------------------------------------|
B-------------------------------------|
G--------7-7-7-7---------8-8-8-8------|
D-(0-0-)----------(1-1-)--------------|
A-(0-0-)-5-5-5-5(1-1-)-6-6-6-6--------|
E-(0-0-)----------(1-1-)--------------|

Chorus Variation: ("Are you that someone?�")
E--------------------|
B--------------------|
G--------------------|
D-0-0/5----1-1/6-----|
A-0-0/5----1-1/6-----|
E-0-0/5----1-1/6-----|

(Verse; guitar solos with its second part and Guitars 1 & 3 kick in an out their G and D# chords.)

Chorus 2 has Guitars 1-3 playing the same thing that they play in the verse, and Guitar 4 is playing:
E-----------------------------------------------------|
B-----------------------------------------------------|
G-10-10-10-10-10-10-8-6-5-5-5-5-7-7-7-7-8-------------|
D-----------------------------------------------------|
A--8--8--8--8--8--8-6-5-3-3-3-3-5-5-5-5-6-------------|
E-----------------------------------------------------|

End Guitar 4 holds the F octave (x-8-x-10-x-x)
And Guitar one plays this when Guitar 4 slides down:
E----------|
B----------|
G-3--------|
D-1----/4--|
A-1----/4--|
E----------|

OptimusPrime

Submitted by OptimusPrime at Sun 01 Dec, 2002 5:22 pm

Author: ?
Composer: ?
Publisher: ?
Language: English

Reactions

CommonCrawl [Bot]

Follow Muzikum