Zao

Zao
Exchange (Guitar tab)

Author/Artist: Zao
Title: Exchange
Album: The Splinter Shards The Birth of Separation
Transcribed by: John Farthing
Email: spamboy@mindless.com

Intro:
------------------------------------------------------------------------------
------------------------------------------------------------------------------
------------------------------------------------------------------------------
-------------------------------------------2-2-2------------------------------
-2/14--14--14h15p14----2/14-14---14h15p14--2-2-2---2/14-14-14h15p14--2/14-----
-0---------------------0-------------------0-0-0---0-----------------0--------

|----------Play this a few times-----------|
------------------------------------------------------------------------------
------------------------------------------------------------------------------
---------------9--------------------------------------------------------------
---------------9----2-2-2--3-5--2-2-2--5-3----2-2-2--3-5---2-2----------------
-14-14h15p14---7----2-2-2--3-5--2-2-2--5-3----2-2-2--3-5---2-2----------------
---------------7----0-0-0--1-3--0-0-0--3-1----0-0-0--1-3---0-0----------------


main verse tab:
------------------------------------------------------------------------------
------------------------------------------------------------------------------
------------------------------------------------------------------------------
------------------------------------------------------------------------------
-----7-----8-----10-----8-----7h8-----7-----8-----7-----5-----5h7-------------
-0-0---0-0---0-0----0-0---0-0-----0-0---0-0---0-0---0-0---0-0-----------------



then the breakdown
------------------------------------------------------------------------------
------------------------------------------------------------------------------
------------------------------------------------------------------------------
------------------------------------------------------------------------------
-3-1-0-3-4-3-1-0---------3-1-0-3-4-3-1-0-----------7-7-7-8-7-7-7-8------------
-3-1-0-1-2-3-1-0-334455--3-1-0-1-2-3-1-0--334455---5-5-5-6-5-5-5-6------------


------------------------------------------------------------------------------
------------------------------------------------------------------------------
------------------------------------------------------------------------------
-----2-2h3p2p0------------------2-2h3p2p0----------5--------2-2h3p2p0---------
----------------5-8-7-0-5------------------5-8-7-0----------------------------
-0-0------------------------0--0------------------------0-0-------------------


------------------------------------------------------------------------------
------------------------------------------------------------------------------
-----------------------------------------9-9-9-10-10-10-12-12-12-10-10-10-----
-----------------2-2h3p2p0---5-3-2-0-2---9-9-9-10-10-10-12-12-12-10-10-10-----
-5-8-7-0-5-------------------------------7-7-7-8--8--8--10-10-10-8--8--8------
-------------0-0--------------------------------------------------------------

after the last part, go back to the main verse part and play for the rest of the song.
If anybody has any other tab from Songs From the Penalty Box please send them to me.

OptimusPrime

Submitted by OptimusPrime at Tue 18 Dec, 2001 1:24 pm

Author: ?
Composer: ?
Publisher: ?
Language: English

Reactions

CommonCrawl [Bot]

Follow Muzikum