Waiting
Number Nine (Guitar tab)

Author/Artist: Clark Leake
Title: Number 9
Album: "The Waiting"
Transcribed by: Mark
Email: calvin@bright.net

This is my first attempt at tabing a song so just take what
you get.� Most of this song is power chords as you
probably can see.

------------------------------------------------------------------------------
------------------------------------------------------------------------------
------------------------------------------------------------------------------
-7----10--11--10--------------------------------------------------------------
-7----10--11--10--------------------------------------------------------------
-5-----8-/-9-\-8--------------------------------------------------------------
������������������� X8�������������������������������������������������������

------------------------------------------------------------------------------
------------------------------------------------------------------------------
------------------------------------------------------------------------------
-7------7------7------7------7------7------7------7---------------------------
-7------7------7------7------7------7------7------7---------------------------
-5------5------5------5------5------5------5------5---------------------------
Don't believe another song could ever change the world.���������������������

------------------------------------------------------------------------------
------------------------------------------------------------------------------
------------------------------------------------------------------------------
-7------7------7------7------7------7------7------7---------------------------
-7------7------7------7------7------7------7------7---------------------------
-5------5------5------5------5------5------5------5---------------------------
Don't believe that little boys grow up to be little girls.������������������

------------------------------------------------------------------------------
------------------------------------------------------------------------------
------------------------------------------------------------------------------
-12------12------12------12------12------12------12---------------------------
-12------12------12------12------12------12------12---------------------------
-10------10------10------10------10------10------10---------------------------
Don't believe that wishing ever really made it so.��������������������������

------------------------------------------------------------------------------
------------------------------------------------------------------------------
------------------------------------------------------------------------------
-7------7------7------7------7------7------7------7---------------------------
-7------7------7------7------7------7------7------7---------------------------
-5------5------5------5------5------5------5------5---------------------------
Don't believe you love me you don't tell me anymore.������������������������

------------------------------------------------------------------------------
------------------------------------------------------------------------------
------------------------------------------------------------------------------
-10-----10-----10-----10-----------12------12------12---7-----7-----7-----7---
-10-----10-----10-----10-----------12------12------12---7-----7-----7-----7---
--8------8------8------8-----------10------10------10---5-----5-----5-----5---
� Don't believe that suicide could ever open up any door.��������������������

------------------------------------------------------------------------------
------------------------------------------------------------------------------
------------------------------------------------------------------------------
-7------7------7------7------7------7------7------7------7--------------------
-7------7------7------7------7------7------7------7------7--------------------
-5------5------5------5------5------5------5------5------5--------------------
Can't count on my lucky star if I don't know where it's at.�����������������

------------------------------------------------------------------------------
------------------------------------------------------------------------------
------------------------------------------------------------------------------
-7------7------7------7------7------7------7------7------7--------------------
-7------7------7------7------7------7------7------7------7--------------------
-5------5------5------5------5------5------5------5------5--------------------
Can't count on my fingers I've got more sense than that.��������������������

------------------------------------------------------------------------------
------------------------------------------------------------------------------
------------------------------------------------------------------------------
-12------12------12------12------12------12------12---------------------------
-12------12------12------12------12------12------12---------------------------
-10------10------10------10------10------10------10---------------------------
Can't count on my money, it all goes to pay the rent.�����������������������

------------------------------------------------------------------------------
------------------------------------------------------------------------------
------------------------------------------------------------------------------
-7------7------7------7------7------7------7------7------7--------------------
-7------7------7------7------7------7------7------7------7--------------------
-5------5------5------5------5------5------5------5------5--------------------
Can't count on Philosifers if I don't know what they meant.�����������������

------------------------------------------------------------------------------
------------------------------------------------------------------------------
------------------------------------------------------------------------------
-10-----10-----10-----10----------12------12------12------12------7---7---7---
-10-----10-----10-----10----------12------12------12------12------7---7---7---
--8------8------8------8----------10------10------10------10------5---5---5---
There's a time for counting 1 by 1, a time for counting what's been spent.��

------------------------------------------------------------------------------
------------------------------------------------------------------------------
------------------------------------------------------------------------------
------------------------------------------------------------------------------
------------------------------------------------------------------------------
----------5------5------5------5---0-----0-----0-----10--10----5---5---5------
Chorus:� Some people live their lives, like they're on number 9.������������

------------------------------------------------------------------------------
------------------------------------------------------------------------------
------------------------------------------------------------------------------
-----7-----7-----7----2----2----12---12---7-----7-----------------------------
-----7-----7-----7----2----2----12---12---7-----7-----------------------------
-----5-----5-----5----0----0----10---10---5-----5-----------------------------
but I'm gonna be around for a long, long time. (end of Chorus)��������������

------12----12----12----12----12----12----12----12----12----12----12----12----
------------------------------------------------------------------------------
------------------------------------------------------------------------------
------------------------------------------------------------------------------
------------------------------------------------------------------------------
------------------------------------------------------------------------------
I see a stately temple standing in a trance.� I see the saints of God�������

--12----12----12---12---------------------------------------------------------
------------------------------------------------------------------------------
------------------------------------------------------------------------------
-------------------------12------12------12------12------12------12------12---
-------------------------12------12------12------12------12------12------12---
-------------------------10------10------10------10------10------10------10---
breaking into dance.� I see a band of angels running up and down the stairs.

------------------------------------------------------------------------------
------------------------------------------------------------------------------
------------------------------------------------------------------------------
---7------7------7------7------7------7------7--------------------------------
---7------7------7------7------7------7------7--------------------------------
---5------5------5------5------5------5------5-----8-----8-----8-----8--------
I see a thousand sparrows floating in the air.� I see a love-sick Savior,���

------------------------------------------------------------------------------
------------------------------------------------------------------------------
------------------------------------------------------------------------------
-----12------12------12------12---7-----7-----7-----7-----7-----7-------------
-----12------12------12------12---7-----7-----7-----7-----7-----7-------------
-----10------10------10------10---5-----5-----5-----5-----5-----5-------------
and I can see the scars that He wears.��������������������������������������

-Chorus-����������������������������������������������������������������������

------------------------------------------------------------------------------
------------------------------------------------------------------------------
------------------------------------------------------------------------------
------------------------------------------------------------------------------
------------------------------------------------------------------------------
-5------5------5-----5---0----0-------10-----10-------5------5------5----5----
I don't want to live my life.� In an endless nursery rhyme.� For I'm gonna��


------------------------------------------------------------------------------
------------------------------------------------------------------------------
------------------------------------------------------------------------------
------------------------------------------------------------------------------
------------------------------------------------------------------------------
-5----5---0----0---10----10---5----5-----5----5-------------------------------
be around, for a long, long time.�������������������������������������������

-Chorus-����������������������������������������������������������������������

------------------------------------------------------------------------------
------------------------------------------------------------------------------
------------------------------------------------------------------------------
-----10--11--10---------------------------------------------------------------
-----10--11--10---------------------------------------------------------------
-5----8-/-9-\-8---------------------------------------------------------------
������������������� X5�

Copyrights
Author: ?
Composer: ?
Publisher: ?
More details
Language: English

Reactions

CommonCrawl [Bot]

Follow Muzikum