Tsol
80 Times (Guitar tab)

Date: Mon, 15 Jan 2001 14:03:46 -0500
From: "Matt Sauro"
Subject: t/tsol/80_times.tab

Author/Artist: The Offspring / TSOL
Title: 80 Times
Transcribed by: Matt Sauro
Email: white_ninja119@hotmail.com

A great song by TSOL covered by a truly awesome band, The Offspring.

-------------------------------------------------------------------------
--8-8-8-8--8-10-11-8--6-6-6-6--6-8-9-6-----------------------------------
-------------------------------------------------------------------------
--5------------------3---------------------------------------------------
--5------------------3---------------------------------------------------
--3------------------1---------------------------------------------------
Intro:

-------------------------------------------------------------------------
-------------------------------------------------------------------------
-------------------------------------------------------------------------
--55555555---5-/-3---33333333---3-/-5------------------------------------
--55555555---5-/-3---33333333---3-/-5------------------------------------
--33333333---3-/-1---11111111---1-/-3------------------------------------
Verse: Listen to song to get rhythm and pm's

-------------------------------------------------------------------------
-------------------------------------------------------------------------
--------5---------5-/-7-/-5-------5--------------------------------------
--77777-5--77777--5-/-7-/-5--7777-5--7777777-----------------------------
--77777-3--77777--3-/-5-/-3--7777-3--7777777-----------------------------
--55555----55555-------------5555----5555555-----------------------------
Chorus:

-------------------------------------------------------------------------
--10-10-10-10-10-8---------10-10-10-10-10-8------------------------------
-------------------10-8---------------------10-8-10----------------------
------------------------10-----------------------------------------------
-------------------------------------------------------------------------
-------------------------------------------------------------------------

------------------------8------------------------------------------------
--10-10-10-10-10-8-------------------------------------------------------
-------------------10-8--------------------------------------------------
-------------------------------------------------------------------------
-------------------------------------------------------------------------
-------------------------------------------------------------------------
TSOL's solo and The Offspring's solos are slightly different, play
something with these notes to get the solo.

And that's about it, the intro a couple times, verse, chorus, verse, chorus,
solo, 2nd part of chorus. That's it.

Copyrights
Author: ?
Composer: ?
Publisher: ?
More details
Language: English

Reactions

CommonCrawl [Bot]

Follow Muzikum