Superdrag
N (Guitar tab)

Superdrag - N.A Kicker
Regretfully Yours

dANiNF

INTRO
X2
e|--5-5-5-7-7-7-------------7-7-7-5---------|
b|--------------6-6-6-7-7-7---------8-7-7~--|
g|------------------------------------------|
d|------------------------------------------|
a|------------------------------------------|
e|------------------------------------------|

e|--7-7-7-5---------7-7-7-5---------7-7-7-9-9~--5---5~--|
b|----------8-7-7~----------8-7-7~----------------7-----|
g|------------------------------------------------------|
d|------------------------------------------------------|
a|------------------------------------------------------|
e|------------------------------------------------------|

e|--2--|
b|--3--|
g|--2--|
d|--0--|
a|-----|
e|-----|

VERSE X3
D Bm F# G C#
e|--2-2-2-2-2-2-2-2--2-2-2-2-2-2-2-2--2-2-2-2-2-2-2-2--3-3-3-3-3-3------|
b|--3-3-3-3-3-3-3-3--3-3-3-3-3-3-3-3--2-2-2-2-2-2-2-2--3-3-3-3-3-3------|
g|--2-2-2-2-2-2-2-2--4-4-4-4-4-4-4-4--3-3-3-3-3-3-3-3--4-4-4-4-4-4-6-6--|
d|--0-0-0-0-0-0-0-0--4-4-4-4-4-4-4-4--4-4-4-4-4-4-4-4--5-5-5-5-5-5-x-x--|
a|-------------------2-2-2-2-2-2-2-2--4-4-4-4-4-4-4-4--5-5-5-5-5-5-4-4--|
e|------------------------------------2-2-2-2-2-2-2-2--3-3-3-3-3-3------|

VERSE X1
D Bm F# G A
e|--2-2-2-2-2-2-2-2--2-2-2-2-2-2-2-2--2-2-2-2-2-2-2-2--3-3-3-3-5-5-5-5--|
b|--3-3-3-3-3-3-3-3--3-3-3-3-3-3-3-3--2-2-2-2-2-2-2-2--3-3-3-3-5-5-5-5--|
g|--2-2-2-2-2-2-2-2--4-4-4-4-4-4-4-4--3-3-3-3-3-3-3-3--4-4-4-4-6-6-6-6--|
d|--0-0-0-0-0-0-0-0--4-4-4-4-4-4-4-4--4-4-4-4-4-4-4-4--5-5-5-5-7-7-7-7--|
a|-------------------2-2-2-2-2-2-2-2--4-4-4-4-4-4-4-4--5-5-5-5-7-7-7-7--|
e|------------------------------------2-2-2-2-2-2-2-2--3-3-3-3-5-5-5-5--|

You can take your precious time, draining all my blood
if I ever make you mine, I wonder if I could
I could be a different trip nothing but a buzz
yes I think I'm on the tip I told you what it does


PRE-CHORUS X1
Bm A
e|--2-2-2-2-2-2-2-2--0-0-0-0-0-0-0-0--3-3-3-3-3-3-3-3--0-0-0-0-0-0-0-0--|
b|--3-3-3-3-3-3-3-3--2-2-2-2-2-2-2-2--3-3-3-3-3-3-3-3--0-0-0-0-0-0-0-0--|
g|--4-4-4-4-4-4-4-4--2-2-2-2-2-2-2-2--4-4-4-4-4-4-4-4--1-1-1-1-1-1-1-1--|
d|--4-4-4-4-4-4-4-4--2-2-2-2-2-2-2-2--5-5-5-5-5-5-5-5--2-2-2-2-2-2-2-2--|
a|--2-2-2-2-2-2-2-2--0-0-0-0-0-0-0-0--5-5-5-5-5-5-5-5--2-2-2-2-2-2-2-2--|
e|------------------------------------3-3-3-3-3-3-3-3--0-0-0-0-0-0-0-0--|

I'm sure you've heard this one a million times before

CHORUS X2
D F# G
e|--2-2-2--2-2-2-2--3-3-3-3-3-3-3-3--|
b|--3-3-3--2-2-2-2--3-3-3-3-3-3-3-3--|
g|--2-2-2--3-3-3-3--4-4-4-4-4-4-4-4--|
d|--0-0-0--4-4-4-4--5-5-5-5-5-5-5-5--|
a|---------4-4-4-4--5-5-5-5-5-5-5-5--|
e|---------2-2-2-2--3-3-3-3-3-3-3-3--|

X1
D F# G Gm
e|--2-2-2--2-2-2-2--3-3-3-3-3-3-3-3--|
b|--3-3-3--2-2-2-2--3-3-3-3-3-3-3-3--|
g|--2-2-2--3-3-3-3--4-4-4-4-3-3-3-3--|
d|--0-0-0--4-4-4-4--5-5-5-5-5-5-5-5--|
a|---------4-4-4-4--5-5-5-5-5-5-5-5--|
e|---------2-2-2-2--3-3-3-3-3-3-3-3--|

you're the one I wanna adore,
and I can't shut it up anymore
I just hope it's not becoming a bore
cuz I can't daydream anymore


PRE-VERSE 2
X2
e|--5-5-5-7-7-7-------------7-7-7-5---------|
b|--------------6-6-6-7-7-7---------8-7-7~--|
g|------------------------------------------|
d|------------------------------------------|
a|------------------------------------------|
e|------------------------------------------|

VERSE (Same as Verse 1)
sending you a valentine every single day
you might say it's summertime a thousand miles away
it would be a Superdrag if you should pass me by
I could smoke a million bags - you can get me high

PRE-CHORUS (Same)
I'm sure you've heard this one a million times before

CHORUS (Same)
you're the one I wanna adore,
and I can't shut it up anymore
I just hope it's not becoming a bore
cuz I can't daydream anymore


ENDING
X2
e|--5-5-5-7-7-7-------------7-7-7-5---------|
b|--------------6-6-6-7-7-7---------8-7-7~--|
g|------------------------------------------|
d|------------------------------------------|
a|------------------------------------------|
e|------------------------------------------|

Copyrights
Author: ?
Composer: ?
Publisher: ?
More details
Language: English

Reactions

CommonCrawl [Bot]

Follow Muzikum