Osker
F Ck Me (Bass tab)

INTRO this may look wierd, but listen to the song and you'll see
G|------------------------------------|
D|------------------------------------|
A|----------2--2-2-2-3--3-3-3-5--5-5-5|
E|-3--3-3-3---------------------------|

VERSE
G|----------------------------|
D|----------------------------|
A|--------2-2-2--3-3-3--5-5-5-|
E|-3-3-3----------------------|

CHORUS
G|-------------------------------------------------|
D|-------------------------------------------------|
A|-3-3-3-3-3-3-------------3-3-3-3-3-3-------------|
E|-------------3-3-3-3-3-3-------------3-3-3-3-3-3-|
I can't think clear with you by my side. You make me disturbed and I act all uptight.
G|-------------------------------------------------|
D|-------------------------------------------------|
A|-3-3-3-3-3-3-------------3-3-3-3-3-3-5-5-5-5-5-5-|
E|-------------3-3-3-3-3-3-------------------------|
I think I could do, without the stress, so why are you here?



DURING GUITAR SOLO, PLAY VERSE

Tabed by AJ, bassist for ThreeCities

Copyrights
Author: ?
Composer: ?
Publisher: ?
More details
Language: English

Reactions

CommonCrawl [Bot]

Follow Muzikum