Mxpx
G F S Live (Guitar chord)

-------------------------------------------------------------------------------
G.S.F.(LIVE) - MxPx
-------------------------------------------------------------------------------

By: Jordan Sapp (jsapp02@hotmail.com)

INTRO: play individual notes of the chords to the rythem of the song
e|---------------------------------------------------------------------------|
B|---------------------------------------------------------------------------|
G|---------------9---------5---------7-----------------9------5------7-------|
D|-----5---------9---------5---------7---------5-------9------5------7-------|
A|-----5---------7---------3---------5---------5-------7------3------5-------|
E|-----3---------------------------------------3-----------------------------|

First Verse: (Palm Mute)

G E C
didnt have to be so mean to me

D G
i guess now i see how its gonna be

E C
im joining GSF ive made up my mind

D
forget this thing called love

Interlude: No Palm Mute

G----B----C----D
its a waste of time

G----B----C----D
waste of time

E C G D
girls aint no good anymore anyway

E C
not for one second have i understood

G
why they do what they do

D
why they say what they say wish they'd all go away


Repeat Intro


2nd Verse: strum four quick strokes then deaden for each note (listen to
song)

G E
always happens to my friends

C
always happens to me

D
its taken me 19 years

G
to finally see

E
she says can we just be friends

C
its just not workin out

D
another broken heart


Interlude: Normal Strumming

G----B----C----D
that i can do without

G----B----C----D
do without


Chorus:

E C G D
girls aint no good anymore anyway

E C
not for one second have i understood

G
why they do what they do

D
why they say what they say


e|---------------------------------------------------------------------------|
B|---------------------------------------------------------------------------|
G|---------------9---------5---------7-----------------9------5------7-------|
D|-----5---------9---------5---------7---------5-------9------5------7-------|
A|-----5---------7---------3---------5---------5-------7------3------5-------|
E|-----3---------------------------------------3-----------------------------|

Play along with the music, to get the rhythem

===============================================================================

Copyrights
Author: ?
Composer: ?
Publisher: ?
More details
Language: English

Reactions

CommonCrawl [Bot]

Follow Muzikum