Jean-Joseph Mouret

Jean-Joseph Mouret
Fanfare (Guitar tab)

#
From: jlg@mail.utexas.edu (Loyd Gattis)

Mouret: Fanfare ("Masterpiece Theatre" theme)

I've written this in fast 4/4: numbers beneath the staff indicate the
duration of each note (8 = eighth note, 4d = dotted quarter, etc.).

e |--------------------------------------------------------------|
B |----------------------------------------------------3---------|
G |---------------0-----------0-2-2-2-2-4-2--0-----0-2---2-2-----|
D |-4-2-0---0-2-4---4-2-0-2-4------------------4-4-----------4-2-|
A |-------0------------------------------------------------------|
E |--------------------------------------------------------------|
8 8 4 4 4 4 8 8 8 8 8 8 8 8 4 8 8 4 4 4d 8 4 8 8 4 4 4 4 4 8


e |--------------------------------------------------------------|
B |--------------------------------------------------------------|
G |---0-2---0----------------------------------------------------|
D |-4-----4---2-2--2--2------------------------------------------|
A |--------------------------------------------------------------|
E |--------------------------------------------------------------|
8 8 8 8 8 4 8d 16 4d

e |--------------------------------------------------------------|
B |----------------------------------------------------3---------|
G |---------------0-----------0-2-2-2-2-4-2--0-----0-2---2-2-----|
D |-4-2-0---0-2-4---4-2-0-2-4------------------4-4-----------4-2-|
A |-------0------------------------------------------------------|
E |--------------------------------------------------------------|
8 8 4 4 4 4 8 8 8 8 8 8 8 8 4 8 8 4 4 4d 8 4 8 8 4 4 4 4 4 8

e |--------------------------------------------------------------|
B |--------------------------------------------------------------|
G |---0-2---0---2-0----------------------------------------------|
D |-4-----4---2-----4-2--0--0------------------------------------|
A |--------------------------------------------------------------|
E |--------------------------------------------------------------|
8 8 8 8 8 8 8 8 8 4d 8 4d (stop here second time through)


e |--------------------------------------------------------------|
B |--------------------------------------------------------------|
G |---0-2-2-2-2-2-------------------0--------------------0-2-2-2-|
D |-4-------------4-0-0---0-2-4-2-4---4-2-0---0--------4---------|
A |---------------------4-------------------4---4-2-0------------|
E |--------------------------------------------------------------|
8 8 4 8 8 4 4 4 4 8 8 8 8 4 8 8 8 8 8 8 8 8 8 8 4 8 8 4 8 8

e |--------------------------------------------------------------|
B |--------------------------------------------------------------|
G |-2-2-------------------0-------2------------------------------|
D |-----4-0-0---0-2-4-2-4---4-2-0--------------------------------|
A |-----------4--------------------------------------------------|
E |--------------------------------------------------------------|
4 4 4 4 8 8 8 8 4 8 8 8 8 8 8 4d (return to beginning)

Posted by: jlg@mail.utexas.edu (Loyd Gattis)

OptimusPrime

Submitted by OptimusPrime at Tue 18 Dec, 2001 1:09 pm

Author: ?
Composer: ?
Publisher: ?
Language: English

Reactions

CommonCrawl [Bot]

Follow Muzikum