Mogwai
2 Wrongs Make 1 Right (Guitar tab)

Author/Artist: Mogwai
Title: 2 Rights make 1 Wrong
Album: Rock Action
Transcribed by: Rob Veater
Email: Sally.veater@btopenwotld.com

This is quite simple, but it sounds good

Normal Tuning

------------------------------------------------------------------------------
-----2-------2-------2-------2--------2-------2-------2-------2---------------
---2---2---2---2---2---2---2---2----2---2---2---2---2---2---2---2-------------
------------------------------------------------------------------------------
-0-------0-------0-------0----------------------------------------------------
----------------------------------2-------2-------2-------2-------2-----------


------------------------------------------------------------------------------
-----2-------2-------2-------2-------2-------2-------2-------2----------------
---2---2---2---2---2---2---2---2---2---2---2---2---2---2---2---2--------------
-0-------0-------0-------0----------------------------------------------------
---------------------------------2-------2-------2-------2--------------------
------------------------------------------------------------------------------
And so on...

Copyrights
Author: ?
Composer: ?
Publisher: ?
More details
Language: English

Reactions

CommonCrawl [Bot]

Follow Muzikum