Misc
Lost - Matthew Ferguson (Guitar tab)

This is one of the songs I've written In the past several years. But this is the first one I've posted up, I'll be putting up many more in the future. This is called Lost, written and composed by me, I hope you enjoy.


Lost

Intro

Riff 1 (finger picking)
FM7 CS4 Em AM
e|--------|--------|--------|--------|--------|
b|1---1---|--1---1-|0---0---|0---2--0|--------| (let ring)
4/4 g|--2---2-|0---0---|--0---0-|--2---2-|--------| x8
OT=100 d|-3---3--|-3---3--|-2---2--|-2---2--|--------|
a|3--3---3|3--3---0|2--2---0|0--0----|--------|
e|--------|--------|--------|--------|--------|
1&2&3&4& 1&2&3&4& 1&2&3&4& 1&2&3&4& 1&2&3&4&
rit.


Riff 2 (use pick)
Verse
FM7 xx CS4 xx
e|0---0-00-00-0-00|0---0-00-00-0-00|
b|1---1-11-11-1-11|1---1-11-11-1-11|
g|2---2-22-22-2-22|x---x-xx-xx-x-xx|
d|3---3-33-33-3-33|3---3-33-33-3-33|
a|3---3-33-33-3-33|3---3-33-33-3-33|
e|----------------|----------------|
1e&a2e&a3e&a4e&a 1e&a2e&a3e&a4e&a
^ ^ ^V V^ ^ ^V ^ ^ ^V V^ ^ ^V
atempo

Em xx AS2 AM xx
e|0---0-00-00-0-00|0---0-00-00-0-00|
b|0---0-00-00-0-00|0---0-00-22-2-22|
g|0---0-00-00-0-00|2---2-22-22-2-22| x8
d|2---2-22-22-2-22|2---2-22-22-2-22| (let all notes ring through)
a|2---2-22-22-2-22|0---0-00-00-0-00|
e|----------------|----------------|
1e&a2e&a3e&a4e&a 1e&a2e&a3e&a4e&a
^ ^ ^V V^ ^ ^V ^ ^ ^V V^ ^ ^V


Riff 3 (use pick)
Chorus
Am Em GM xx GM xx
e|--------|--------|------11-11-1-11|------11-11-1-11|
b|11111111|--------|------11-11-1-11|------11-11-1-11|
4/4 g|22222222|--------|------00-00-0-00|------00-00-0-00| x2
NT=120 d|22222222|22222222|------00-00-0-00|------00-00-0-00|
a|--------|22222222|------22-22-2-22|------22-22-2-22|
e|--------|--------|2-2-2-33-33-3-33|2-2-2-33-33-3-33|
1&2&3&4& 1&2&3&4& 1e&a2e&a3e&a4e&a 1e&a2e&a3e&a4e&a


Fill 1 (use pick and sweep up)
FM7
e|--------|
b|11111111|
g|22222222| x1
d|33333333|
a|33333333|
e|--------|
1&2&3&4&
atempo


Outro

Riff 4 (finger picking)
FM7 CS4 Em AM
e|--------|--------|--------|--------|
b|1---1---|--1---1-|0---0---|0---2--2| (let ring)
g|--2---2-|0---0---|--0---0-|--2---2-| x1
d|-3---3--|-3---3--|-2---2--|-2---2--|
a|3--3---3|3--3---0|2--2---0|0--0----|
e|--------|--------|--------|--------|
1&2&3&4& 1&2&3&4& 1&2&3&4& 1&2&3&4&

-Order

Riff 1 (intro) x8
Riff 2 x8
Riff 3 x2
Fill x1
Riff 1 x8
Riff 2 x8
Riff 3 x2
Fill x1
Riff 4 (outro) x1

-Key

x = Mute
^ = Upstroke
V = Downstroke
(the numbers) = Downbeat
& = Upbeat
e = Beat between the down and the preceding up beat
a = Beat between the up and the preceding down beat
M = Major chord
m = Minor chord
S = Suspended chord
rit. = slow tempo down
atempo = resume original tempo
OT = Original Tempo
NT = New Tempo

I hope you enjoyed Lost by Matthew Ferguson, which is me. Contact me at mattferg88@yahoo.com if you want to hear a recording or have any comments or questions. I'll be posting lyrics later.
-matt out

Copyrights
Author: ?
Composer: ?
Publisher: ?
More details
Language: English

Reactions

CommonCrawl [Bot]

Follow Muzikum