Misc
In The Days (Guitar tab)

^=bend
e\-----------------------------------------------
b\-----------------------------------------------
g\-----------------------------------------------
d\5--5--7--7---------------5^-3^-2^-0-2-2--------
a\3--3--4--4----7--5--5-3^------------3-3--------
e\-----------4--4--3--3---------------3-3--------

e\0-----------------------
b\----0-------------------
g\--0---0-0---------------
d\------------------------
a\------------------------
e\------------------------

omyinc.

  • Aros

    Submitted by

    Aros at Wed 01 Sep, 2004 3:37 pm

  • <
Copyrights
Author: ?
Composer: ?
Publisher: ?

Reactions

CommonCrawl [Bot]

Follow Muzikum