Misc
Worried Blues Riff (Bass tab)

Worried blues bass riff
Tabbed by wilza

G---|---------|----------|-------------
D---|---------|-------0-2|-3-----------
A---|-3--3-3--|-3---3----|----3--------
E-3-|---------|---3------|-----1-------

G---------|----------|----0--------|---------|-----|
D---------|----------|-------------|---------|-----|
A------0-2|-3--3-3---|-3----3--2-0-|-----0-2-|-3---|
E-1--1----|--------3-|-------------|-3-3-----|-----|

Please note that the rythm of this tab my be a little incorect, I am sorry about this as I havn't yet played it properly, but I will very soon, and if any timing is wrong it'll be fixed within a week.
Sorry =)

Copyrights
Author: ?
Composer: ?
Publisher: ?
More details
Language: English

Reactions

CommonCrawl [Bot]

Follow Muzikum